  0
SECTION
  2
HEADER
  9
$ACADVER
  1
AC1032
  9
$ACADMAINTVER
 90
       55
  9
$DWGCODEPAGE
  3
ANSI_932
  9
$LASTSAVEDBY
  1
client05
  9
$REQUIREDVERSIONS
160
                 0
  9
$INSBASE
 10
0.0
 20
0.0
 30
0.0
  9
$EXTMIN
 10
-38.21298594841858
 20
-101.7757571212121
 30
0.0
  9
$EXTMAX
 10
211.7870140515814
 20
358.8465109090908
 30
0.0
  9
$LIMMIN
 10
0.0
 20
0.0
  9
$LIMMAX
 10
297.0
 20
210.0
  9
$ORTHOMODE
 70
     0
  9
$REGENMODE
 70
     1
  9
$FILLMODE
 70
     1
  9
$QTEXTMODE
 70
     0
  9
$MIRRTEXT
 70
     1
  9
$LTSCALE
 40
0.25
  9
$ATTMODE
 70
     1
  9
$TEXTSIZE
 40
5.0
  9
$TRACEWID
 40
0.05
  9
$TEXTSTYLE
  7
Standard
  9
$CLAYER
  8
0
  9
$CELTYPE
  6
ByLayer
  9
$CECOLOR
 62
   256
  9
$CELTSCALE
 40
1.0
  9
$DISPSILH
 70
     0
  9
$DIMSCALE
 40
1.0
  9
$DIMASZ
 40
4.0
  9
$DIMEXO
 40
2.0
  9
$DIMDLI
 40
10.0
  9
$DIMRND
 40
0.0
  9
$DIMDLE
 40
0.0
  9
$DIMEXE
 40
2.0
  9
$DIMTP
 40
0.0
  9
$DIMTM
 40
0.0
  9
$DIMTXT
 40
3.5
  9
$DIMCEN
 40
0.09
  9
$DIMTSZ
 40
0.0
  9
$DIMTOL
 70
     0
  9
$DIMLIM
 70
     0
  9
$DIMTIH
 70
     0
  9
$DIMTOH
 70
     0
  9
$DIMSE1
 70
     0
  9
$DIMSE2
 70
     0
  9
$DIMTAD
 70
     3
  9
$DIMZIN
 70
     8
  9
$DIMBLK
  1

  9
$DIMASO
 70
     1
  9
$DIMSHO
 70
     1
  9
$DIMPOST
  1

  9
$DIMAPOST
  1

  9
$DIMALT
 70
     0
  9
$DIMALTD
 70
     2
  9
$DIMALTF
 40
25.4
  9
$DIMLFAC
 40
1.0
  9
$DIMTOFL
 70
     1
  9
$DIMTVP
 40
0.7
  9
$DIMTIX
 70
     0
  9
$DIMSOXD
 70
     0
  9
$DIMSAH
 70
     0
  9
$DIMBLK1
  1

  9
$DIMBLK2
  1

  9
$DIMSTYLE
  2
Standard
  9
$DIMCLRD
 70
     0
  9
$DIMCLRE
 70
     0
  9
$DIMCLRT
 70
     0
  9
$DIMTFAC
 40
0.5
  9
$DIMGAP
 40
0.09
  9
$DIMJUST
 70
     0
  9
$DIMSD1
 70
     0
  9
$DIMSD2
 70
     0
  9
$DIMTOLJ
 70
     1
  9
$DIMTZIN
 70
     8
  9
$DIMALTZ
 70
     0
  9
$DIMALTTZ
 70
     0
  9
$DIMUPT
 70
     1
  9
$DIMDEC
 70
     2
  9
$DIMTDEC
 70
     4
  9
$DIMALTU
 70
     2
  9
$DIMALTTD
 70
     2
  9
$DIMTXSTY
  7
Standard
  9
$DIMAUNIT
 70
     0
  9
$DIMADEC
 70
     0
  9
$DIMALTRND
 40
0.0
  9
$DIMAZIN
 70
     0
  9
$DIMDSEP
 70
    46
  9
$DIMATFIT
 70
     2
  9
$DIMFRAC
 70
     0
  9
$DIMLDRBLK
  1

  9
$DIMLUNIT
 70
     2
  9
$DIMLWD
 70
    -2
  9
$DIMLWE
 70
    -2
  9
$DIMTMOVE
 70
     2
  9
$DIMFXL
 40
1.0
  9
$DIMFXLON
 70
     0
  9
$DIMJOGANG
 40
0.7853981633974483
  9
$DIMTFILL
 70
     0
  9
$DIMTFILLCLR
 70
     0
  9
$DIMARCSYM
 70
     0
  9
$DIMLTYPE
  6

  9
$DIMLTEX1
  6

  9
$DIMLTEX2
  6

  9
$DIMTXTDIRECTION
 70
     0
  9
$LUNITS
 70
     2
  9
$LUPREC
 70
     4
  9
$SKETCHINC
 40
0.1
  9
$FILLETRAD
 40
0.5
  9
$AUNITS
 70
     0
  9
$AUPREC
 70
     0
  9
$MENU
  1
.
  9
$ELEVATION
 40
0.0
  9
$PELEVATION
 40
0.0
  9
$THICKNESS
 40
0.0
  9
$LIMCHECK
 70
     0
  9
$CHAMFERA
 40
0.0
  9
$CHAMFERB
 40
0.0
  9
$CHAMFERC
 40
0.0
  9
$CHAMFERD
 40
0.0
  9
$SKPOLY
 70
     0
  9
$TDCREATE
 40
2459374.875729166
  9
$TDUCREATE
 40
2459374.500729166
  9
$TDUPDATE
 40
2459374.500732384
  9
$TDUUPDATE
 40
2459374.125732384
  9
$TDINDWG
 40
0.0000000116
  9
$TDUSRTIMER
 40
0.0000000116
  9
$USRTIMER
 70
     1
  9
$ANGBASE
 50
0.0
  9
$ANGDIR
 70
     0
  9
$PDMODE
 70
     0
  9
$PDSIZE
 40
0.0
  9
$PLINEWID
 40
0.0
  9
$SPLFRAME
 70
     0
  9
$SPLINETYPE
 70
     6
  9
$SPLINESEGS
 70
     8
  9
$HANDSEED
  5
602
  9
$SURFTAB1
 70
     6
  9
$SURFTAB2
 70
     6
  9
$SURFTYPE
 70
     6
  9
$SURFU
 70
     6
  9
$SURFV
 70
     6
  9
$UCSBASE
  2

  9
$UCSNAME
  2

  9
$UCSORG
 10
0.0
 20
0.0
 30
0.0
  9
$UCSXDIR
 10
1.0
 20
0.0
 30
0.0
  9
$UCSYDIR
 10
0.0
 20
1.0
 30
0.0
  9
$UCSORTHOREF
  2

  9
$UCSORTHOVIEW
 70
     0
  9
$UCSORGTOP
 10
0.0
 20
0.0
 30
0.0
  9
$UCSORGBOTTOM
 10
0.0
 20
0.0
 30
0.0
  9
$UCSORGLEFT
 10
0.0
 20
0.0
 30
0.0
  9
$UCSORGRIGHT
 10
0.0
 20
0.0
 30
0.0
  9
$UCSORGFRONT
 10
0.0
 20
0.0
 30
0.0
  9
$UCSORGBACK
 10
0.0
 20
0.0
 30
0.0
  9
$PUCSBASE
  2

  9
$PUCSNAME
  2

  9
$PUCSORG
 10
0.0
 20
0.0
 30
0.0
  9
$PUCSXDIR
 10
1.0
 20
0.0
 30
0.0
  9
$PUCSYDIR
 10
0.0
 20
1.0
 30
0.0
  9
$PUCSORTHOREF
  2

  9
$PUCSORTHOVIEW
 70
     0
  9
$PUCSORGTOP
 10
0.0
 20
0.0
 30
0.0
  9
$PUCSORGBOTTOM
 10
0.0
 20
0.0
 30
0.0
  9
$PUCSORGLEFT
 10
0.0
 20
0.0
 30
0.0
  9
$PUCSORGRIGHT
 10
0.0
 20
0.0
 30
0.0
  9
$PUCSORGFRONT
 10
0.0
 20
0.0
 30
0.0
  9
$PUCSORGBACK
 10
0.0
 20
0.0
 30
0.0
  9
$USERI1
 70
     0
  9
$USERI2
 70
     0
  9
$USERI3
 70
     0
  9
$USERI4
 70
     0
  9
$USERI5
 70
     0
  9
$USERR1
 40
0.0
  9
$USERR2
 40
0.0
  9
$USERR3
 40
0.0
  9
$USERR4
 40
0.0
  9
$USERR5
 40
0.0
  9
$WORLDVIEW
 70
     1
  9
$SHADEDGE
 70
     3
  9
$SHADEDIF
 70
    70
  9
$TILEMODE
 70
     1
  9
$MAXACTVP
 70
    64
  9
$PINSBASE
 10
0.0
 20
0.0
 30
0.0
  9
$PLIMCHECK
 70
     0
  9
$PEXTMIN
 10
0.0
 20
0.0
 30
0.0
  9
$PEXTMAX
 10
297.0
 20
210.0
 30
0.0
  9
$PLIMMIN
 10
0.0
 20
0.0
  9
$PLIMMAX
 10
297.0
 20
210.0
  9
$UNITMODE
 70
     0
  9
$VISRETAIN
 70
     1
  9
$PLINEGEN
 70
     0
  9
$PSLTSCALE
 70
     1
  9
$TREEDEPTH
 70
  3020
  9
$CMLSTYLE
  2
Standard
  9
$CMLJUST
 70
     0
  9
$CMLSCALE
 40
1.0
  9
$PROXYGRAPHICS
 70
     1
  9
$MEASUREMENT
 70
     1
  9
$CELWEIGHT
370
    -1
  9
$ENDCAPS
280
     0
  9
$JOINSTYLE
280
     0
  9
$LWDISPLAY
290
     0
  9
$INSUNITS
 70
     4
  9
$HYPERLINKBASE
  1

  9
$STYLESHEET
  1

  9
$XEDIT
290
     1
  9
$CEPSNTYPE
380
     0
  9
$PSTYLEMODE
290
     1
  9
$FINGERPRINTGUID
  2
{2f969bb7-c899-42a5-8f4f-7f345341141b}
  9
$VERSIONGUID
  2
{FAEB1C32-E019-11D5-929B-00C0DF256EC4}
  9
$EXTNAMES
290
     1
  9
$PSVPSCALE
 40
0.0
  9
$OLESTARTUP
290
     0
  9
$SORTENTS
280
   127
  9
$INDEXCTL
280
     0
  9
$HIDETEXT
280
     1
  9
$XCLIPFRAME
280
     2
  9
$HALOGAP
280
     0
  9
$OBSCOLOR
 70
   257
  9
$OBSLTYPE
280
     0
  9
$INTERSECTIONDISPLAY
280
     0
  9
$INTERSECTIONCOLOR
 70
   257
  9
$DIMASSOC
280
     1
  9
$PROJECTNAME
  1

  9
$CAMERADISPLAY
290
     0
  9
$LENSLENGTH
 40
50.0
  9
$CAMERAHEIGHT
 40
0.0
  9
$STEPSPERSEC
 40
2.0
  9
$STEPSIZE
 40
6.0
  9
$3DDWFPREC
 40
2.0
  9
$PSOLWIDTH
 40
0.25
  9
$PSOLHEIGHT
 40
4.0
  9
$LOFTANG1
 40
1.570796326794897
  9
$LOFTANG2
 40
1.570796326794897
  9
$LOFTMAG1
 40
0.0
  9
$LOFTMAG2
 40
0.0
  9
$LOFTPARAM
 70
     7
  9
$LOFTNORMALS
280
     1
  9
$LATITUDE
 40
37.795
  9
$LONGITUDE
 40
-122.394
  9
$NORTHDIRECTION
 40
0.0
  9
$TIMEZONE
 70
 -8000
  9
$LIGHTGLYPHDISPLAY
280
     1
  9
$TILEMODELIGHTSYNCH
280
     1
  9
$CMATERIAL
347
44
  9
$SOLIDHIST
280
     0
  9
$SHOWHIST
280
     1
  9
$DWFFRAME
280
     2
  9
$DGNFRAME
280
     2
  9
$REALWORLDSCALE
290
     1
  9
$INTERFERECOLOR
 62
   256
  9
$CSHADOW
280
     0
  9
$SHADOWPLANELOCATION
 40
0.0
  0
ENDSEC
  0
SECTION
  2
CLASSES
  0
CLASS
  1
ACDBDICTIONARYWDFLT
  2
AcDbDictionaryWithDefault
  3
ObjectDBX Classes
 90
        0
 91
        3
280
     0
281
     0
  0
CLASS
  1
VISUALSTYLE
  2
AcDbVisualStyle
  3
ObjectDBX Classes
 90
     4095
 91
        3
280
     0
281
     0
  0
CLASS
  1
MATERIAL
  2
AcDbMaterial
  3
ObjectDBX Classes
 90
     1153
 91
        3
280
     0
281
     0
  0
CLASS
  1
SCALE
  2
AcDbScale
  3
ObjectDBX Classes
 90
     1153
 91
        3
280
     0
281
     0
  0
CLASS
  1
TABLESTYLE
  2
AcDbTableStyle
  3
ObjectDBX Classes
 90
     4095
 91
        3
280
     0
281
     0
  0
CLASS
  1
MLEADERSTYLE
  2
AcDbMLeaderStyle
  3
ACDB_MLEADERSTYLE_CLASS
 90
     4095
 91
        3
280
     0
281
     0
  0
CLASS
  1
SUN
  2
AcDbSun
  3
SCENEOE
 90
     1153
 91
        3
280
     0
281
     0
  0
CLASS
  1
DICTIONARYVAR
  2
AcDbDictionaryVar
  3
ObjectDBX Classes
 90
        0
 91
        3
280
     0
281
     0
  0
CLASS
  1
CELLSTYLEMAP
  2
AcDbCellStyleMap
  3
ObjectDBX Classes
 90
     1152
 91
        3
280
     0
281
     0
  0
ENDSEC
  0
SECTION
  2
TABLES
  0
TABLE
  2
VPORT
  5
8
330
0
100
AcDbSymbolTable
 70
     1
  0
VPORT
  5
29
330
8
100
AcDbSymbolTableRecord
100
AcDbViewportTableRecord
  2
*Active
 70
     0
 10
0.0
 20
0.0
 11
1.0
 21
1.0
 12
10.42990654205607
 22
4.5
 13
0.0
 23
0.0
 14
0.5
 24
0.5
 15
0.5
 25
0.5
 16
0.0
 26
0.0
 36
1.0
 17
0.0
 27
0.0
 37
0.0
 40
9.0
 41
1.972972972850329
 42
50.0
 43
0.0
 44
0.0
 50
0.0
 51
0.0
 71
     0
 72
   100
 73
     1
 74
     3
 75
     0
 76
     0
 77
     0
 78
     0
281
     0
 65
     1
110
0.0
120
0.0
130
0.0
111
1.0
121
0.0
131
0.0
112
0.0
122
1.0
132
0.0
 79
     0
146
0.0
348
2F
 60
     3
 61
     5
292
     1
282
     1
141
0.0
142
0.0
 63
   250
361
6D
  0
ENDTAB
  0
TABLE
  2
LTYPE
  5
5
330
0
100
AcDbSymbolTable
 70
     9
  0
LTYPE
  5
14
330
5
100
AcDbSymbolTableRecord
100
AcDbLinetypeTableRecord
  2
ByBlock
 70
     0
  3

 72
    65
 73
     0
 40
0.0
  0
LTYPE
  5
15
330
5
100
AcDbSymbolTableRecord
100
AcDbLinetypeTableRecord
  2
ByLayer
 70
     0
  3

 72
    65
 73
     0
 40
0.0
  0
LTYPE
  5
16
330
5
100
AcDbSymbolTableRecord
100
AcDbLinetypeTableRecord
  2
Continuous
 70
     0
  3
Solid line
 72
    65
 73
     0
 40
0.0
  0
LTYPE
  5
BC
330
5
100
AcDbSymbolTableRecord
100
AcDbLinetypeTableRecord
  2
DOT
 70
     0
  3
DOT
 72
    65
 73
     2
 40
4.0
 49
6.0
 74
     0
 49
-2.0
 74
     0
  0
LTYPE
  5
BD
330
5
100
AcDbSymbolTableRecord
100
AcDbLinetypeTableRecord
  2
HIDDEN
 70
     0
  3
HIDDEN
 72
    65
 73
     2
 40
4.2
 49
8.4
 74
     0
 49
-4.2
 74
     0
  0
LTYPE
  5
BE
330
5
100
AcDbSymbolTableRecord
100
AcDbLinetypeTableRecord
  2
DASHDOT
 70
     0
  3
DASHDOT
 72
    65
 73
     4
 40
14.5
 49
30.0
 74
     0
 49
-9.0
 74
     0
 49
2.5
 74
     0
 49
-9.0
 74
     0
  0
LTYPE
  5
BF
330
5
100
AcDbSymbolTableRecord
100
AcDbLinetypeTableRecord
  2
PHANTOM
 70
     0
  3
PHANTOM
 72
    65
 73
     6
 40
12.0
 49
30.0
 74
     0
 49
-9.0
 74
     0
 49
2.5
 74
     0
 49
-5.0
 74
     0
 49
2.5
 74
     0
 49
-9.0
 74
     0
  0
LTYPE
  5
C0
330
5
100
AcDbSymbolTableRecord
100
AcDbLinetypeTableRecord
  2
ACAD_ISO14W100
 70
     0
  3
ACAD_ISO14W100
 72
    65
 73
     8
 40
1.5
 49
12.0
 74
     0
 49
-3.0
 74
     0
 49
0.5
 74
     0
 49
-3.0
 74
     0
 49
0.5
 74
     0
 49
-3.0
 74
     0
 49
0.5
 74
     0
 49
-3.0
 74
     0
  0
LTYPE
  5
C1
330
5
100
AcDbSymbolTableRecord
100
AcDbLinetypeTableRecord
  2
ACAD_ISO06W100
 70
     0
  3
ACAD_ISO06W100
 72
    65
 73
     8
 40
13.5
 49
24.0
 74
     0
 49
-3.0
 74
     0
 49
0.5
 74
     0
 49
-3.0
 74
     0
 49
0.5
 74
     0
 49
-3.0
 74
     0
 49
0.5
 74
     0
 49
-3.0
 74
     0
  0
LTYPE
  5
C2
330
5
100
AcDbSymbolTableRecord
100
AcDbLinetypeTableRecord
  2
ACAD_ISO11W100
 70
     0
  3
ACAD_ISO11W100
 72
    65
 73
     6
 40
15.5
 49
12.0
 74
     0
 49
-3.0
 74
     0
 49
12.0
 74
     0
 49
-3.0
 74
     0
 49
0.5
 74
     0
 49
-3.0
 74
     0
  0
LTYPE
  5
C3
330
5
100
AcDbSymbolTableRecord
100
AcDbLinetypeTableRecord
  2
ACAD_ISO13W100
 70
     0
  3
ACAD_ISO13W100
 72
    65
 73
     8
 40
13.0
 49
12.0
 74
     0
 49
-3.0
 74
     0
 49
12.0
 74
     0
 49
-3.0
 74
     0
 49
0.5
 74
     0
 49
-3.0
 74
     0
 49
0.5
 74
     0
 49
-3.0
 74
     0
  0
ENDTAB
  0
TABLE
  2
LAYER
  5
2
330
0
100
AcDbSymbolTable
 70
    30
  0
LAYER
  5
10
330
2
100
AcDbSymbolTableRecord
100
AcDbLayerTableRecord
  2
0
 70
     0
 62
     7
  6
Continuous
370
    -3
390
F
347
46
348
0
  0
LAYER
  5
C4
330
2
100
AcDbSymbolTableRecord
100
AcDbLayerTableRecord
  2
1
 70
     0
 62
     7
  6
Continuous
370
     9
390
F
347
46
348
0
  0
LAYER
  5
C5
330
2
100
AcDbSymbolTableRecord
100
AcDbLayerTableRecord
  2
2
 70
     0
 62
   136
420
    32896
  6
Continuous
370
     9
390
F
347
46
348
0
  0
LAYER
  5
C6
330
2
100
AcDbSymbolTableRecord
100
AcDbLayerTableRecord
  2
3
 70
     0
 62
   216
420
  8388736
  6
Continuous
370
     9
390
F
347
46
348
0
  0
LAYER
  5
C7
330
2
100
AcDbSymbolTableRecord
100
AcDbLayerTableRecord
  2
4
 70
     0
 62
    56
420
  8421376
  6
Continuous
370
     9
390
F
347
46
348
0
  0
LAYER
  5
C8
330
2
100
AcDbSymbolTableRecord
100
AcDbLayerTableRecord
  2
5
 70
     0
 62
    96
420
    32768
  6
Continuous
370
     9
390
F
347
46
348
0
  0
LAYER
  5
C9
330
2
100
AcDbSymbolTableRecord
100
AcDbLayerTableRecord
  2
6
 70
     0
 62
    16
420
  8388608
  6
Continuous
370
     9
390
F
347
46
348
0
  0
LAYER
  5
CA
330
2
100
AcDbSymbolTableRecord
100
AcDbLayerTableRecord
  2
7
 70
     0
 62
     4
  6
Continuous
370
     9
390
F
347
46
348
0
  0
LAYER
  5
CB
330
2
100
AcDbSymbolTableRecord
100
AcDbLayerTableRecord
  2
8
 70
     0
 62
     6
  6
Continuous
370
     9
390
F
347
46
348
0
  0
LAYER
  5
CC
330
2
100
AcDbSymbolTableRecord
100
AcDbLayerTableRecord
  2
9
 70
     0
 62
     2
  6
Continuous
370
     9
390
F
347
46
348
0
  0
LAYER
  5
CD
330
2
100
AcDbSymbolTableRecord
100
AcDbLayerTableRecord
  2
10
 70
     0
 62
     3
  6
Continuous
370
     9
390
F
347
46
348
0
  0
LAYER
  5
CE
330
2
100
AcDbSymbolTableRecord
100
AcDbLayerTableRecord
  2
11
 70
     0
 62
     8
420
  8421504
  6
Continuous
370
     9
390
F
347
46
348
0
  0
LAYER
  5
CF
330
2
100
AcDbSymbolTableRecord
100
AcDbLayerTableRecord
  2
12
 70
     0
 62
   138
420
    20560
  6
Continuous
370
     9
390
F
347
46
348
0
  0
LAYER
  5
D0
330
2
100
AcDbSymbolTableRecord
100
AcDbLayerTableRecord
  2
13
 70
     0
 62
   218
420
  5242960
  6
Continuous
370
     9
390
F
347
46
348
0
  0
LAYER
  5
D1
330
2
100
AcDbSymbolTableRecord
100
AcDbLayerTableRecord
  2
14
 70
     0
 62
    58
420
  5263360
  6
Continuous
370
     9
390
F
347
46
348
0
  0
LAYER
  5
D2
330
2
100
AcDbSymbolTableRecord
100
AcDbLayerTableRecord
  2
15
 70
     0
 62
    98
420
    20480
  6
Continuous
370
     9
390
F
347
46
348
0
  0
LAYER
  5
D3
330
2
100
AcDbSymbolTableRecord
100
AcDbLayerTableRecord
  2
16
 70
     0
 62
    18
420
  5242880
  6
Continuous
370
     9
390
F
347
46
348
0
  0
LAYER
  5
D4
330
2
100
AcDbSymbolTableRecord
100
AcDbLayerTableRecord
  2
17
 70
     0
 62
   132
420
    49344
  6
Continuous
370
     9
390
F
347
46
348
0
  0
LAYER
  5
D5
330
2
100
AcDbSymbolTableRecord
100
AcDbLayerTableRecord
  2
18
 70
     0
 62
   212
420
 12583104
  6
Continuous
370
     9
390
F
347
46
348
0
  0
LAYER
  5
D6
330
2
100
AcDbSymbolTableRecord
100
AcDbLayerTableRecord
  2
19
 70
     0
 62
    52
420
 12632064
  6
Continuous
370
     9
390
F
347
46
348
0
  0
LAYER
  5
D7
330
2
100
AcDbSymbolTableRecord
100
AcDbLayerTableRecord
  2
20
 70
     0
 62
   251
420
  5263440
  6
Continuous
370
     9
390
F
347
46
348
0
  0
LAYER
  5
D8
330
2
100
AcDbSymbolTableRecord
100
AcDbLayerTableRecord
  2
100
 70
     0
 62
     7
  6
Continuous
370
     9
390
F
347
46
348
0
  0
LAYER
  5
D9
330
2
100
AcDbSymbolTableRecord
100
AcDbLayerTableRecord
  2
101
 70
     0
 62
     7
  6
Continuous
370
     9
390
F
347
46
348
0
  0
LAYER
  5
DA
330
2
100
AcDbSymbolTableRecord
100
AcDbLayerTableRecord
  2
102
 70
     0
 62
     7
  6
Continuous
370
     9
390
F
347
46
348
0
  0
LAYER
  5
DB
330
2
100
AcDbSymbolTableRecord
100
AcDbLayerTableRecord
  2
103
 70
     0
 62
     9
420
 12434877
  6
Continuous
370
     9
390
F
347
46
348
0
  0
LAYER
  5
DC
330
2
100
AcDbSymbolTableRecord
100
AcDbLayerTableRecord
  2
104
 70
     0
 62
   253
420
 10263708
  6
Continuous
370
     9
390
F
347
46
348
0
  0
LAYER
  5
DD
330
2
100
AcDbSymbolTableRecord
100
AcDbLayerTableRecord
  2
105
 70
     0
 62
     8
420
  7566195
  6
Continuous
370
     9
390
F
347
46
348
0
  0
LAYER
  5
DE
330
2
100
AcDbSymbolTableRecord
100
AcDbLayerTableRecord
  2
106
 70
     0
 62
     8
420
  7566195
  6
Continuous
370
     9
390
F
347
46
348
0
  0
LAYER
  5
DF
330
2
100
AcDbSymbolTableRecord
100
AcDbLayerTableRecord
  2
107
 70
     0
 62
     1
  6
Continuous
370
     9
390
F
347
46
348
0
  0
LAYER
  5
E0
330
2
100
AcDbSymbolTableRecord
100
AcDbLayerTableRecord
  2
128
 70
     0
 62
     7
  6
Continuous
370
     9
390
F
347
46
348
0
  0
ENDTAB
  0
TABLE
  2
STYLE
  5
3
330
0
100
AcDbSymbolTable
 70
     2
  0
STYLE
  5
11
330
3
100
AcDbSymbolTableRecord
100
AcDbTextStyleTableRecord
  2
Standard
 70
     0
 40
0.0
 41
1.0
 50
0.0
 71
     0
 42
5.0
  3
txt
  4
bigfont
  0
STYLE
  5
6F
330
3
100
AcDbSymbolTableRecord
100
AcDbTextStyleTableRecord
  2
T_STANDARD
 70
     4
 40
10.0
 41
1.0
 50
0.0
 71
     0
 42
5.0
  3
txt
  4
bigfont
1001
ACAD
1000

1071
      256
  0
ENDTAB
  0
TABLE
  2
VIEW
  5
6
330
0
100
AcDbSymbolTable
 70
     0
  0
ENDTAB
  0
TABLE
  2
UCS
  5
7
330
0
100
AcDbSymbolTable
 70
     0
  0
ENDTAB
  0
TABLE
  2
APPID
  5
9
330
0
100
AcDbSymbolTable
 70
     2
  0
APPID
  5
12
330
9
100
AcDbSymbolTableRecord
100
AcDbRegAppTableRecord
  2
ACAD
 70
     0
  0
APPID
  5
6E
330
9
100
AcDbSymbolTableRecord
100
AcDbRegAppTableRecord
  2
ODA
 70
     0
  0
ENDTAB
  0
TABLE
  2
DIMSTYLE
  5
A
330
0
100
AcDbSymbolTable
 70
     1
100
AcDbDimStyleTable
  0
DIMSTYLE
105
27
330
A
100
AcDbSymbolTableRecord
100
AcDbDimStyleTableRecord
  2
Standard
 70
     0
178
     0
340
11
  0
ENDTAB
  0
TABLE
  2
BLOCK_RECORD
  5
1
330
0
100
AcDbSymbolTable
 70
    55
  0
BLOCK_RECORD
  5
1F
330
1
100
AcDbSymbolTableRecord
100
AcDbBlockTableRecord
  2
*Model_Space
340
22
 70
     0
280
     1
281
     0
  0
BLOCK_RECORD
  5
1B
330
1
100
AcDbSymbolTableRecord
100
AcDbBlockTableRecord
  2
*Paper_Space
340
1E
 70
     0
280
     1
281
     0
  0
BLOCK_RECORD
  5
23
330
1
100
AcDbSymbolTableRecord
100
AcDbBlockTableRecord
  2
*Paper_Space0
340
26
 70
     0
280
     1
281
     0
  0
BLOCK_RECORD
  5
70
330
1
100
AcDbSymbolTableRecord
100
AcDbBlockTableRecord
  2
_ORIGIN
340
0
 70
     0
280
     1
281
     0
  0
BLOCK_RECORD
  5
75
330
1
100
AcDbSymbolTableRecord
100
AcDbBlockTableRecord
  2
_DOTBLANK
340
0
 70
     0
280
     1
281
     0
  0
BLOCK_RECORD
  5
7A
330
1
100
AcDbSymbolTableRecord
100
AcDbBlockTableRecord
  2
_DOT
340
0
 70
     0
280
     1
281
     0
  0
BLOCK_RECORD
  5
7F
330
1
100
AcDbSymbolTableRecord
100
AcDbBlockTableRecord
  2
_OPEN
340
0
 70
     0
280
     1
281
     0
  0
BLOCK_RECORD
  5
85
330
1
100
AcDbSymbolTableRecord
100
AcDbBlockTableRecord
  2
_CLOSED
340
0
 70
     0
280
     1
281
     0
  0
BLOCK_RECORD
  5
8C
330
1
100
AcDbSymbolTableRecord
100
AcDbBlockTableRecord
  2
_CLOSEDBLANK
340
0
 70
     0
280
     1
281
     0
  0
BLOCK_RECORD
  5
92
330
1
100
AcDbSymbolTableRecord
100
AcDbBlockTableRecord
  2
_ARROWFILLED
340
0
 70
     0
280
     1
281
     0
  0
BLOCK_RECORD
  5
96
330
1
100
AcDbSymbolTableRecord
100
AcDbBlockTableRecord
  2
_BOXBLANK
340
0
 70
     0
280
     1
281
     0
  0
BLOCK_RECORD
  5
9E
330
1
100
AcDbSymbolTableRecord
100
AcDbBlockTableRecord
  2
_BOXFILLED
340
0
 70
     0
280
     1
281
     0
  0
BLOCK_RECORD
  5
A3
330
1
100
AcDbSymbolTableRecord
100
AcDbBlockTableRecord
  2
_INTEGRAL
340
0
 70
     0
280
     1
281
     0
  0
BLOCK_RECORD
  5
A8
330
1
100
AcDbSymbolTableRecord
100
AcDbBlockTableRecord
  2
_OBLIQUE
340
0
 70
     0
280
     1
281
     0
  0
BLOCK_RECORD
  5
AC
330
1
100
AcDbSymbolTableRecord
100
AcDbBlockTableRecord
  2
_NONE
340
0
 70
     0
280
     1
281
     0
  0
BLOCK_RECORD
  5
AF
330
1
100
AcDbSymbolTableRecord
100
AcDbBlockTableRecord
  2
MARK_OPEN
340
0
 70
     0
280
     1
281
     0
  0
BLOCK_RECORD
  5
B4
330
1
100
AcDbSymbolTableRecord
100
AcDbBlockTableRecord
  2
MARK_ORIGIN
340
0
 70
     0
280
     1
281
     0
  0
BLOCK_RECORD
  5
B8
330
1
100
AcDbSymbolTableRecord
100
AcDbBlockTableRecord
  2
MARK_DOT
340
0
 70
     0
280
     1
281
     0
  0
BLOCK_RECORD
  5
E5
330
1
100
AcDbSymbolTableRecord
100
AcDbBlockTableRecord
  2
G1
340
0
102
{BLKREFS
331
3B4
102
}
 70
     0
280
     1
281
     0
  0
BLOCK_RECORD
  5
E8
330
1
100
AcDbSymbolTableRecord
100
AcDbBlockTableRecord
  2
G2
340
0
102
{BLKREFS
331
106
102
}
 70
     0
280
     1
281
     0
  0
BLOCK_RECORD
  5
107
330
1
100
AcDbSymbolTableRecord
100
AcDbBlockTableRecord
  2
G3
340
0
102
{BLKREFS
331
116
102
}
 70
     0
280
     1
281
     0
  0
BLOCK_RECORD
  5
117
330
1
100
AcDbSymbolTableRecord
100
AcDbBlockTableRecord
  2
G4
340
0
102
{BLKREFS
331
125
102
}
 70
     0
280
     1
281
     0
  0
BLOCK_RECORD
  5
126
330
1
100
AcDbSymbolTableRecord
100
AcDbBlockTableRecord
  2
G5
340
0
102
{BLKREFS
331
134
102
}
 70
     0
280
     1
281
     0
  0
BLOCK_RECORD
  5
135
330
1
100
AcDbSymbolTableRecord
100
AcDbBlockTableRecord
  2
G6
340
0
102
{BLKREFS
331
148
102
}
 70
     0
280
     1
281
     0
  0
BLOCK_RECORD
  5
149
330
1
100
AcDbSymbolTableRecord
100
AcDbBlockTableRecord
  2
G7
340
0
102
{BLKREFS
331
157
102
}
 70
     0
280
     1
281
     0
  0
BLOCK_RECORD
  5
158
330
1
100
AcDbSymbolTableRecord
100
AcDbBlockTableRecord
  2
G8
340
0
102
{BLKREFS
331
160
102
}
 70
     0
280
     1
281
     0
  0
BLOCK_RECORD
  5
161
330
1
100
AcDbSymbolTableRecord
100
AcDbBlockTableRecord
  2
G9
340
0
102
{BLKREFS
331
168
102
}
 70
     0
280
     1
281
     0
  0
BLOCK_RECORD
  5
169
330
1
100
AcDbSymbolTableRecord
100
AcDbBlockTableRecord
  2
G10
340
0
102
{BLKREFS
331
188
102
}
 70
     0
280
     1
281
     0
  0
BLOCK_RECORD
  5
189
330
1
100
AcDbSymbolTableRecord
100
AcDbBlockTableRecord
  2
G11
340
0
102
{BLKREFS
331
19C
102
}
 70
     0
280
     1
281
     0
  0
BLOCK_RECORD
  5
19D
330
1
100
AcDbSymbolTableRecord
100
AcDbBlockTableRecord
  2
G12
340
0
102
{BLKREFS
331
1A8
102
}
 70
     0
280
     1
281
     0
  0
BLOCK_RECORD
  5
1A9
330
1
100
AcDbSymbolTableRecord
100
AcDbBlockTableRecord
  2
G13
340
0
102
{BLKREFS
331
1D4
102
}
 70
     0
280
     1
281
     0
  0
BLOCK_RECORD
  5
1D5
330
1
100
AcDbSymbolTableRecord
100
AcDbBlockTableRecord
  2
G14
340
0
102
{BLKREFS
331
1FF
102
}
 70
     0
280
     1
281
     0
  0
BLOCK_RECORD
  5
200
330
1
100
AcDbSymbolTableRecord
100
AcDbBlockTableRecord
  2
G15
340
0
102
{BLKREFS
331
209
102
}
 70
     0
280
     1
281
     0
  0
BLOCK_RECORD
  5
20A
330
1
100
AcDbSymbolTableRecord
100
AcDbBlockTableRecord
  2
G16
340
0
102
{BLKREFS
331
215
102
}
 70
     0
280
     1
281
     0
  0
BLOCK_RECORD
  5
216
330
1
100
AcDbSymbolTableRecord
100
AcDbBlockTableRecord
  2
G17
340
0
102
{BLKREFS
331
21D
102
}
 70
     0
280
     1
281
     0
  0
BLOCK_RECORD
  5
21E
330
1
100
AcDbSymbolTableRecord
100
AcDbBlockTableRecord
  2
G18
340
0
102
{BLKREFS
331
230
102
}
 70
     0
280
     1
281
     0
  0
BLOCK_RECORD
  5
231
330
1
100
AcDbSymbolTableRecord
100
AcDbBlockTableRecord
  2
G19
340
0
102
{BLKREFS
331
246
102
}
 70
     0
280
     1
281
     0
  0
BLOCK_RECORD
  5
247
330
1
100
AcDbSymbolTableRecord
100
AcDbBlockTableRecord
  2
G20
340
0
102
{BLKREFS
331
254
102
}
 70
     0
280
     1
281
     0
  0
BLOCK_RECORD
  5
255
330
1
100
AcDbSymbolTableRecord
100
AcDbBlockTableRecord
  2
G21
340
0
102
{BLKREFS
331
260
102
}
 70
     0
280
     1
281
     0
  0
BLOCK_RECORD
  5
261
330
1
100
AcDbSymbolTableRecord
100
AcDbBlockTableRecord
  2
G22
340
0
102
{BLKREFS
331
275
102
}
 70
     0
280
     1
281
     0
  0
BLOCK_RECORD
  5
276
330
1
100
AcDbSymbolTableRecord
100
AcDbBlockTableRecord
  2
G23
340
0
102
{BLKREFS
331
283
102
}
 70
     0
280
     1
281
     0
  0
BLOCK_RECORD
  5
284
330
1
100
AcDbSymbolTableRecord
100
AcDbBlockTableRecord
  2
G24
340
0
102
{BLKREFS
331
294
102
}
 70
     0
280
     1
281
     0
  0
BLOCK_RECORD
  5
295
330
1
100
AcDbSymbolTableRecord
100
AcDbBlockTableRecord
  2
G25
340
0
102
{BLKREFS
331
2A1
102
}
 70
     0
280
     1
281
     0
  0
BLOCK_RECORD
  5
2A2
330
1
100
AcDbSymbolTableRecord
100
AcDbBlockTableRecord
  2
G26
340
0
102
{BLKREFS
331
2A9
102
}
 70
     0
280
     1
281
     0
  0
BLOCK_RECORD
  5
2AA
330
1
100
AcDbSymbolTableRecord
100
AcDbBlockTableRecord
  2
G27
340
0
102
{BLKREFS
331
2B1
102
}
 70
     0
280
     1
281
     0
  0
BLOCK_RECORD
  5
2B2
330
1
100
AcDbSymbolTableRecord
100
AcDbBlockTableRecord
  2
G28
340
0
102
{BLKREFS
331
2F8
102
}
 70
     0
280
     1
281
     0
  0
BLOCK_RECORD
  5
2F9
330
1
100
AcDbSymbolTableRecord
100
AcDbBlockTableRecord
  2
G29
340
0
102
{BLKREFS
331
311
102
}
 70
     0
280
     1
281
     0
  0
BLOCK_RECORD
  5
312
330
1
100
AcDbSymbolTableRecord
100
AcDbBlockTableRecord
  2
G30
340
0
102
{BLKREFS
331
319
102
}
 70
     0
280
     1
281
     0
  0
BLOCK_RECORD
  5
31A
330
1
100
AcDbSymbolTableRecord
100
AcDbBlockTableRecord
  2
G31
340
0
102
{BLKREFS
331
323
102
}
 70
     0
280
     1
281
     0
  0
BLOCK_RECORD
  5
324
330
1
100
AcDbSymbolTableRecord
100
AcDbBlockTableRecord
  2
G32
340
0
102
{BLKREFS
331
329
102
}
 70
     0
280
     1
281
     0
  0
BLOCK_RECORD
  5
32A
330
1
100
AcDbSymbolTableRecord
100
AcDbBlockTableRecord
  2
G33
340
0
102
{BLKREFS
331
33E
102
}
 70
     0
280
     1
281
     0
  0
BLOCK_RECORD
  5
33F
330
1
100
AcDbSymbolTableRecord
100
AcDbBlockTableRecord
  2
G34
340
0
102
{BLKREFS
331
346
102
}
 70
     0
280
     1
281
     0
  0
BLOCK_RECORD
  5
347
330
1
100
AcDbSymbolTableRecord
100
AcDbBlockTableRecord
  2
G35
340
0
102
{BLKREFS
331
361
102
}
 70
     0
280
     1
281
     0
  0
BLOCK_RECORD
  5
362
330
1
100
AcDbSymbolTableRecord
100
AcDbBlockTableRecord
  2
G36
340
0
102
{BLKREFS
331
379
102
}
 70
     0
280
     1
281
     0
  0
BLOCK_RECORD
  5
37A
330
1
100
AcDbSymbolTableRecord
100
AcDbBlockTableRecord
  2
G37
340
0
102
{BLKREFS
331
397
102
}
 70
     0
280
     1
281
     0
  0
BLOCK_RECORD
  5
398
330
1
100
AcDbSymbolTableRecord
100
AcDbBlockTableRecord
  2
G38
340
0
102
{BLKREFS
331
3AD
102
}
 70
     0
280
     1
281
     0
  0
BLOCK_RECORD
  5
3AE
330
1
100
AcDbSymbolTableRecord
100
AcDbBlockTableRecord
  2
G39
340
0
102
{BLKREFS
331
3B3
102
}
 70
     0
280
     1
281
     0
  0
ENDTAB
  0
ENDSEC
  0
SECTION
  2
BLOCKS
  0
BLOCK
  5
20
330
1F
100
AcDbEntity
  8
0
100
AcDbBlockBegin
  2
*Model_Space
 70
     0
 10
0.0
 20
0.0
 30
0.0
  3
*Model_Space
  1

  0
ENDBLK
  5
21
330
1F
100
AcDbEntity
  8
0
100
AcDbBlockEnd
  0
BLOCK
  5
1C
330
1B
100
AcDbEntity
 67
     1
  8
0
100
AcDbBlockBegin
  2
*Paper_Space
 70
     0
 10
0.0
 20
0.0
 30
0.0
  3
*Paper_Space
  1

  0
ENDBLK
  5
1D
330
1B
100
AcDbEntity
 67
     1
  8
0
100
AcDbBlockEnd
  0
BLOCK
  5
24
330
23
100
AcDbEntity
  8
0
100
AcDbBlockBegin
  2
*Paper_Space0
 70
     0
 10
0.0
 20
0.0
 30
0.0
  3
*Paper_Space0
  1

  0
ENDBLK
  5
25
330
23
100
AcDbEntity
  8
0
100
AcDbBlockEnd
  0
BLOCK
  5
73
330
70
100
AcDbEntity
  8
0
100
AcDbBlockBegin
  2
_ORIGIN
 70
     0
 10
0.0
 20
0.0
 30
0.0
  3
_ORIGIN
  1

  0
CIRCLE
  5
71
330
70
100
AcDbEntity
  8
0
 62
     0
100
AcDbCircle
 10
0.0
 20
0.0
 30
0.0
 40
0.5
  0
LINE
  5
72
330
70
100
AcDbEntity
  8
0
 62
     0
100
AcDbLine
 10
0.0
 20
0.0
 30
0.0
 11
-1.0
 21
0.0
 31
0.0
  0
ENDBLK
  5
74
330
70
100
AcDbEntity
  8
0
100
AcDbBlockEnd
  0
BLOCK
  5
78
330
75
100
AcDbEntity
  8
0
100
AcDbBlockBegin
  2
_DOTBLANK
 70
     0
 10
0.0
 20
0.0
 30
0.0
  3
_DOTBLANK
  1

  0
CIRCLE
  5
76
330
75
100
AcDbEntity
  8
0
 62
     0
100
AcDbCircle
 10
0.0
 20
0.0
 30
0.0
 40
0.5
  0
LINE
  5
77
330
75
100
AcDbEntity
  8
0
 62
     0
100
AcDbLine
 10
-0.5
 20
0.0
 30
0.0
 11
-1.0
 21
0.0
 31
0.0
  0
ENDBLK
  5
79
330
75
100
AcDbEntity
  8
0
100
AcDbBlockEnd
  0
BLOCK
  5
7D
330
7A
100
AcDbEntity
  8
0
100
AcDbBlockBegin
  2
_DOT
 70
     0
 10
0.0
 20
0.0
 30
0.0
  3
_DOT
  1

  0
LWPOLYLINE
  5
7B
330
7A
100
AcDbEntity
  8
0
 62
     0
100
AcDbPolyline
 90
        2
 70
     1
 43
0.5
 10
-0.25
 20
0.0
 42
1.0
 10
0.25
 20
0.0
 42
1.0
  0
LINE
  5
7C
330
7A
100
AcDbEntity
  8
0
 62
     0
100
AcDbLine
 10
-0.5
 20
0.0
 30
0.0
 11
-1.0
 21
0.0
 31
0.0
  0
ENDBLK
  5
7E
330
7A
100
AcDbEntity
  8
0
100
AcDbBlockEnd
  0
BLOCK
  5
83
330
7F
100
AcDbEntity
  8
0
100
AcDbBlockBegin
  2
_OPEN
 70
     0
 10
0.0
 20
0.0
 30
0.0
  3
_OPEN
  1

  0
LINE
  5
80
330
7F
100
AcDbEntity
  8
0
 62
     0
100
AcDbLine
 10
0.0
 20
0.0
 30
0.0
 11
-1.0
 21
0.1666666666666667
 31
0.0
  0
LINE
  5
81
330
7F
100
AcDbEntity
  8
0
 62
     0
100
AcDbLine
 10
0.0
 20
0.0
 30
0.0
 11
-1.0
 21
-0.1666666666666667
 31
0.0
  0
LINE
  5
82
330
7F
100
AcDbEntity
  8
0
 62
     0
100
AcDbLine
 10
0.0
 20
0.0
 30
0.0
 11
-1.0
 21
0.0
 31
0.0
  0
ENDBLK
  5
84
330
7F
100
AcDbEntity
  8
0
100
AcDbBlockEnd
  0
BLOCK
  5
8A
330
85
100
AcDbEntity
  8
0
100
AcDbBlockBegin
  2
_CLOSED
 70
     0
 10
0.0
 20
0.0
 30
0.0
  3
_CLOSED
  1

  0
LINE
  5
86
330
85
100
AcDbEntity
  8
0
 62
     0
100
AcDbLine
 10
0.0
 20
0.0
 30
0.0
 11
-1.0
 21
0.1666666666666667
 31
0.0
  0
LINE
  5
87
330
85
100
AcDbEntity
  8
0
 62
     0
100
AcDbLine
 10
0.0
 20
0.0
 30
0.0
 11
-1.0
 21
-0.1666666666666667
 31
0.0
  0
LINE
  5
88
330
85
100
AcDbEntity
  8
0
 62
     0
100
AcDbLine
 10
-1.0
 20
0.1666666666666667
 30
0.0
 11
-1.0
 21
-0.1666666666666667
 31
0.0
  0
LINE
  5
89
330
85
100
AcDbEntity
  8
0
 62
     0
100
AcDbLine
 10
0.0
 20
0.0
 30
0.0
 11
-1.0
 21
0.0
 31
0.0
  0
ENDBLK
  5
8B
330
85
100
AcDbEntity
  8
0
100
AcDbBlockEnd
  0
BLOCK
  5
90
330
8C
100
AcDbEntity
  8
0
100
AcDbBlockBegin
  2
_CLOSEDBLANK
 70
     0
 10
0.0
 20
0.0
 30
0.0
  3
_CLOSEDBLANK
  1

  0
LINE
  5
8D
330
8C
100
AcDbEntity
  8
0
 62
     0
100
AcDbLine
 10
0.0
 20
0.0
 30
0.0
 11
-1.0
 21
0.1666666666666667
 31
0.0
  0
LINE
  5
8E
330
8C
100
AcDbEntity
  8
0
 62
     0
100
AcDbLine
 10
0.0
 20
0.0
 30
0.0
 11
-1.0
 21
-0.1666666666666667
 31
0.0
  0
LINE
  5
8F
330
8C
100
AcDbEntity
  8
0
 62
     0
100
AcDbLine
 10
-1.0
 20
0.1666666666666667
 30
0.0
 11
-1.0
 21
-0.1666666666666667
 31
0.0
  0
ENDBLK
  5
91
330
8C
100
AcDbEntity
  8
0
100
AcDbBlockEnd
  0
BLOCK
  5
94
330
92
100
AcDbEntity
  8
0
100
AcDbBlockBegin
  2
_ARROWFILLED
 70
     0
 10
0.0
 20
0.0
 30
0.0
  3
_ARROWFILLED
  1

  0
SOLID
  5
93
330
92
100
AcDbEntity
  8
0
 62
     0
100
AcDbTrace
 10
0.0
 20
0.0
 30
0.0
 11
-1.0
 21
-0.1666666666666667
 31
0.0
 12
-1.0
 22
0.1666666666666667
 32
0.0
 13
0.0
 23
0.0
 33
0.0
  0
ENDBLK
  5
95
330
92
100
AcDbEntity
  8
0
100
AcDbBlockEnd
  0
BLOCK
  5
9C
330
96
100
AcDbEntity
  8
0
100
AcDbBlockBegin
  2
_BOXBLANK
 70
     0
 10
0.0
 20
0.0
 30
0.0
  3
_BOXBLANK
  1

  0
LINE
  5
97
330
96
100
AcDbEntity
  8
0
 62
     0
100
AcDbLine
 10
-0.5
 20
-0.5
 30
0.0
 11
0.5
 21
-0.5
 31
0.0
  0
LINE
  5
98
330
96
100
AcDbEntity
  8
0
 62
     0
100
AcDbLine
 10
0.5
 20
-0.5
 30
0.0
 11
0.5
 21
0.5
 31
0.0
  0
LINE
  5
99
330
96
100
AcDbEntity
  8
0
 62
     0
100
AcDbLine
 10
0.5
 20
0.5
 30
0.0
 11
-0.5
 21
0.5
 31
0.0
  0
LINE
  5
9A
330
96
100
AcDbEntity
  8
0
 62
     0
100
AcDbLine
 10
-0.5
 20
0.5
 30
0.0
 11
-0.5
 21
-0.5
 31
0.0
  0
LINE
  5
9B
330
96
100
AcDbEntity
  8
0
 62
     0
100
AcDbLine
 10
-0.5
 20
0.0
 30
0.0
 11
-1.0
 21
0.0
 31
0.0
  0
ENDBLK
  5
9D
330
96
100
AcDbEntity
  8
0
100
AcDbBlockEnd
  0
BLOCK
  5
A1
330
9E
100
AcDbEntity
  8
0
100
AcDbBlockBegin
  2
_BOXFILLED
 70
     0
 10
0.0
 20
0.0
 30
0.0
  3
_BOXFILLED
  1

  0
SOLID
  5
9F
330
9E
100
AcDbEntity
  8
0
 62
     0
100
AcDbTrace
 10
-0.5
 20
0.5
 30
0.0
 11
0.5
 21
0.5
 31
0.0
 12
-0.5
 22
-0.5
 32
0.0
 13
0.5
 23
-0.5
 33
0.0
  0
LINE
  5
A0
330
9E
100
AcDbEntity
  8
0
 62
     0
100
AcDbLine
 10
-0.5
 20
0.0
 30
0.0
 11
-1.0
 21
0.0
 31
0.0
  0
ENDBLK
  5
A2
330
9E
100
AcDbEntity
  8
0
100
AcDbBlockEnd
  0
BLOCK
  5
A6
330
A3
100
AcDbEntity
  8
0
100
AcDbBlockBegin
  2
_INTEGRAL
 70
     0
 10
0.0
 20
0.0
 30
0.0
  3
_INTEGRAL
  1

  0
ARC
  5
A4
330
A3
100
AcDbEntity
  8
0
 62
     0
100
AcDbCircle
 10
0.444888
 20
-0.0913346
 30
0.0
 40
0.4541666
100
AcDbArc
 50
101.9999999999999
 51
167.9999999999998
  0
ARC
  5
A5
330
A3
100
AcDbEntity
  8
0
 62
     0
100
AcDbCircle
 10
-0.444888
 20
0.0913346
 30
0.0
 40
0.4541666
100
AcDbArc
 50
281.9999999999997
 51
347.9999999999997
  0
ENDBLK
  5
A7
330
A3
100
AcDbEntity
  8
0
100
AcDbBlockEnd
  0
BLOCK
  5
AA
330
A8
100
AcDbEntity
  8
0
100
AcDbBlockBegin
  2
_OBLIQUE
 70
     0
 10
0.0
 20
0.0
 30
0.0
  3
_OBLIQUE
  1

  0
LINE
  5
A9
330
A8
100
AcDbEntity
  8
0
 62
     0
100
AcDbLine
 10
-0.5
 20
-0.5
 30
0.0
 11
0.5
 21
0.5
 31
0.0
  0
ENDBLK
  5
AB
330
A8
100
AcDbEntity
  8
0
100
AcDbBlockEnd
  0
BLOCK
  5
AD
330
AC
100
AcDbEntity
  8
0
100
AcDbBlockBegin
  2
_NONE
 70
     0
 10
0.0
 20
0.0
 30
0.0
  3
_NONE
  1

  0
ENDBLK
  5
AE
330
AC
100
AcDbEntity
  8
0
100
AcDbBlockEnd
  0
BLOCK
  5
B2
330
AF
100
AcDbEntity
  8
0
100
AcDbBlockBegin
  2
MARK_OPEN
 70
     0
 10
0.0
 20
0.0
 30
0.0
  3
MARK_OPEN
  1

  0
LINE
  5
B0
330
AF
100
AcDbEntity
  8
0
 62
     0
100
AcDbLine
 10
0.0
 20
0.0
 30
0.0
 11
-1.0
 21
0.1666666666666667
 31
0.0
  0
LINE
  5
B1
330
AF
100
AcDbEntity
  8
0
 62
     0
100
AcDbLine
 10
0.0
 20
0.0
 30
0.0
 11
-1.0
 21
-0.1666666666666667
 31
0.0
  0
ENDBLK
  5
B3
330
AF
100
AcDbEntity
  8
0
100
AcDbBlockEnd
  0
BLOCK
  5
B6
330
B4
100
AcDbEntity
  8
0
100
AcDbBlockBegin
  2
MARK_ORIGIN
 70
     0
 10
0.0
 20
0.0
 30
0.0
  3
MARK_ORIGIN
  1

  0
CIRCLE
  5
B5
330
B4
100
AcDbEntity
  8
0
 62
     0
100
AcDbCircle
 10
0.0
 20
0.0
 30
0.0
 40
0.5
  0
ENDBLK
  5
B7
330
B4
100
AcDbEntity
  8
0
100
AcDbBlockEnd
  0
BLOCK
  5
BA
330
B8
100
AcDbEntity
  8
0
100
AcDbBlockBegin
  2
MARK_DOT
 70
     0
 10
0.0
 20
0.0
 30
0.0
  3
MARK_DOT
  1

  0
LWPOLYLINE
  5
B9
330
B8
100
AcDbEntity
  8
0
 62
     0
100
AcDbPolyline
 90
        2
 70
     1
 43
0.5
 10
-0.25
 20
0.0
 42
1.0
 10
0.25
 20
0.0
 42
1.0
  0
ENDBLK
  5
BB
330
B8
100
AcDbEntity
  8
0
100
AcDbBlockEnd
  0
BLOCK
  5
E6
330
E5
100
AcDbEntity
  8
0
100
AcDbBlockBegin
  2
G1
 70
     0
 10
0.0
 20
0.0
 30
0.0
  3
G1
  1

  0
INSERT
  5
106
330
E5
100
AcDbEntity
  8
0
100
AcDbBlockReference
  2
G2
 10
0.0
 20
0.0
 30
0.0
  0
INSERT
  5
116
330
E5
100
AcDbEntity
  8
0
100
AcDbBlockReference
  2
G3
 10
0.0
 20
0.0
 30
0.0
  0
INSERT
  5
125
330
E5
100
AcDbEntity
  8
0
100
AcDbBlockReference
  2
G4
 10
0.0
 20
0.0
 30
0.0
  0
INSERT
  5
134
330
E5
100
AcDbEntity
  8
0
100
AcDbBlockReference
  2
G5
 10
0.0
 20
0.0
 30
0.0
  0
INSERT
  5
148
330
E5
100
AcDbEntity
  8
0
100
AcDbBlockReference
  2
G6
 10
0.0
 20
0.0
 30
0.0
  0
INSERT
  5
157
330
E5
100
AcDbEntity
  8
0
100
AcDbBlockReference
  2
G7
 10
0.0
 20
0.0
 30
0.0
  0
INSERT
  5
160
330
E5
100
AcDbEntity
  8
0
100
AcDbBlockReference
  2
G8
 10
0.0
 20
0.0
 30
0.0
  0
INSERT
  5
168
330
E5
100
AcDbEntity
  8
0
100
AcDbBlockReference
  2
G9
 10
0.0
 20
0.0
 30
0.0
  0
INSERT
  5
188
330
E5
100
AcDbEntity
  8
0
100
AcDbBlockReference
  2
G10
 10
0.0
 20
0.0
 30
0.0
  0
INSERT
  5
19C
330
E5
100
AcDbEntity
  8
0
100
AcDbBlockReference
  2
G11
 10
0.0
 20
0.0
 30
0.0
  0
INSERT
  5
1A8
330
E5
100
AcDbEntity
  8
0
100
AcDbBlockReference
  2
G12
 10
0.0
 20
0.0
 30
0.0
  0
INSERT
  5
1D4
330
E5
100
AcDbEntity
  8
0
100
AcDbBlockReference
  2
G13
 10
0.0
 20
0.0
 30
0.0
  0
INSERT
  5
1FF
330
E5
100
AcDbEntity
  8
0
100
AcDbBlockReference
  2
G14
 10
0.0
 20
0.0
 30
0.0
  0
INSERT
  5
209
330
E5
100
AcDbEntity
  8
0
100
AcDbBlockReference
  2
G15
 10
0.0
 20
0.0
 30
0.0
  0
INSERT
  5
215
330
E5
100
AcDbEntity
  8
0
100
AcDbBlockReference
  2
G16
 10
0.0
 20
0.0
 30
0.0
  0
INSERT
  5
21D
330
E5
100
AcDbEntity
  8
0
100
AcDbBlockReference
  2
G17
 10
0.0
 20
0.0
 30
0.0
  0
INSERT
  5
230
330
E5
100
AcDbEntity
  8
0
100
AcDbBlockReference
  2
G18
 10
0.0
 20
0.0
 30
0.0
  0
INSERT
  5
246
330
E5
100
AcDbEntity
  8
0
100
AcDbBlockReference
  2
G19
 10
0.0
 20
0.0
 30
0.0
  0
INSERT
  5
254
330
E5
100
AcDbEntity
  8
0
100
AcDbBlockReference
  2
G20
 10
0.0
 20
0.0
 30
0.0
  0
INSERT
  5
260
330
E5
100
AcDbEntity
  8
0
100
AcDbBlockReference
  2
G21
 10
0.0
 20
0.0
 30
0.0
  0
INSERT
  5
275
330
E5
100
AcDbEntity
  8
0
100
AcDbBlockReference
  2
G22
 10
0.0
 20
0.0
 30
0.0
  0
INSERT
  5
283
330
E5
100
AcDbEntity
  8
0
100
AcDbBlockReference
  2
G23
 10
0.0
 20
0.0
 30
0.0
  0
INSERT
  5
294
330
E5
100
AcDbEntity
  8
0
100
AcDbBlockReference
  2
G24
 10
0.0
 20
0.0
 30
0.0
  0
INSERT
  5
2A1
330
E5
100
AcDbEntity
  8
0
100
AcDbBlockReference
  2
G25
 10
0.0
 20
0.0
 30
0.0
  0
INSERT
  5
2A9
330
E5
100
AcDbEntity
  8
0
100
AcDbBlockReference
  2
G26
 10
0.0
 20
0.0
 30
0.0
  0
INSERT
  5
2B1
330
E5
100
AcDbEntity
  8
0
100
AcDbBlockReference
  2
G27
 10
0.0
 20
0.0
 30
0.0
  0
INSERT
  5
2F8
330
E5
100
AcDbEntity
  8
0
100
AcDbBlockReference
  2
G28
 10
0.0
 20
0.0
 30
0.0
  0
INSERT
  5
311
330
E5
100
AcDbEntity
  8
0
100
AcDbBlockReference
  2
G29
 10
0.0
 20
0.0
 30
0.0
  0
INSERT
  5
319
330
E5
100
AcDbEntity
  8
0
100
AcDbBlockReference
  2
G30
 10
0.0
 20
0.0
 30
0.0
  0
INSERT
  5
323
330
E5
100
AcDbEntity
  8
0
100
AcDbBlockReference
  2
G31
 10
0.0
 20
0.0
 30
0.0
  0
INSERT
  5
329
330
E5
100
AcDbEntity
  8
0
100
AcDbBlockReference
  2
G32
 10
0.0
 20
0.0
 30
0.0
  0
INSERT
  5
33E
330
E5
100
AcDbEntity
  8
0
100
AcDbBlockReference
  2
G33
 10
0.0
 20
0.0
 30
0.0
  0
INSERT
  5
346
330
E5
100
AcDbEntity
  8
0
100
AcDbBlockReference
  2
G34
 10
0.0
 20
0.0
 30
0.0
  0
INSERT
  5
361
330
E5
100
AcDbEntity
  8
0
100
AcDbBlockReference
  2
G35
 10
0.0
 20
0.0
 30
0.0
  0
INSERT
  5
379
330
E5
100
AcDbEntity
  8
0
100
AcDbBlockReference
  2
G36
 10
0.0
 20
0.0
 30
0.0
  0
INSERT
  5
397
330
E5
100
AcDbEntity
  8
0
100
AcDbBlockReference
  2
G37
 10
0.0
 20
0.0
 30
0.0
  0
INSERT
  5
3AD
330
E5
100
AcDbEntity
  8
0
100
AcDbBlockReference
  2
G38
 10
0.0
 20
0.0
 30
0.0
  0
INSERT
  5
3B3
330
E5
100
AcDbEntity
  8
0
100
AcDbBlockReference
  2
G39
 10
0.0
 20
0.0
 30
0.0
  0
ENDBLK
  5
E7
330
E5
100
AcDbEntity
  8
0
100
AcDbBlockEnd
  0
BLOCK
  5
E9
330
E8
100
AcDbEntity
  8
0
100
AcDbBlockBegin
  2
G2
 70
     0
 10
0.0
 20
0.0
 30
0.0
  3
G2
  1

  0
LINE
  5
EB
330
E8
100
AcDbEntity
  8
100
  6
Continuous
 62
     7
370
    30
100
AcDbLine
 10
53.018182
 20
181.636364
 30
0.0
 11
47.372727
 21
180.654545
 31
0.0
  0
LINE
  5
EC
330
E8
100
AcDbEntity
  8
100
  6
Continuous
 62
     7
370
    30
100
AcDbLine
 10
47.372727
 20
180.654545
 30
0.0
 11
43.2
 21
185.072727
 31
0.0
  0
LINE
  5
ED
330
E8
100
AcDbEntity
  8
100
  6
Continuous
 62
     7
370
    30
100
AcDbLine
 10
43.2
 20
185.072727
 30
0.0
 11
14.727273
 21
201.763636
 31
0.0
  0
LINE
  5
EE
330
E8
100
AcDbEntity
  8
100
  6
Continuous
 62
     7
370
    30
100
AcDbLine
 10
14.727273
 20
201.763636
 30
0.0
 11
3.927273
 21
201.763636
 31
0.0
  0
LINE
  5
EF
330
E8
100
AcDbEntity
  8
100
  6
Continuous
 62
     7
370
    30
100
AcDbLine
 10
3.927273
 20
201.763636
 30
0.0
 11
2.945455
 21
200.168182
 31
0.0
  0
LINE
  5
F0
330
E8
100
AcDbEntity
  8
100
  6
Continuous
 62
     7
370
    30
100
AcDbLine
 10
2.945455
 20
200.168182
 30
0.0
 11
0.552273
 21
113.829545
 31
0.0
  0
LINE
  5
F1
330
E8
100
AcDbEntity
  8
100
  6
Continuous
 62
     7
370
    30
100
AcDbLine
 10
0.552273
 20
113.829545
 30
0.0
 11
0.736364
 21
112.418182
 31
0.0
  0
LINE
  5
F2
330
E8
100
AcDbEntity
  8
100
  6
Continuous
 62
     7
370
    30
100
AcDbLine
 10
0.736364
 20
112.418182
 30
0.0
 11
1.656818
 21
111.129545
 31
0.0
  0
LINE
  5
F3
330
E8
100
AcDbEntity
  8
100
  6
Continuous
 62
     7
370
    30
100
AcDbLine
 10
1.656818
 20
111.129545
 30
0.0
 11
2.822727
 21
110.454545
 31
0.0
  0
LINE
  5
F4
330
E8
100
AcDbEntity
  8
100
  6
Continuous
 62
     7
370
    30
100
AcDbLine
 10
2.822727
 20
110.454545
 30
0.0
 11
15.831818
 21
105.975
 31
0.0
  0
LINE
  5
F5
330
E8
100
AcDbEntity
  8
100
  6
Continuous
 62
     7
370
    30
100
AcDbLine
 10
15.831818
 20
105.975
 30
0.0
 11
37.370455
 21
99.531818
 31
0.0
  0
LINE
  5
F6
330
E8
100
AcDbEntity
  8
100
  6
Continuous
 62
     7
370
    30
100
AcDbLine
 10
37.370455
 20
99.531818
 30
0.0
 11
46.206818
 21
101.863636
 31
0.0
  0
LINE
  5
F7
330
E8
100
AcDbEntity
  8
100
  6
Continuous
 62
     7
370
    30
100
AcDbLine
 10
46.206818
 20
101.863636
 30
0.0
 11
43.077273
 21
102.231818
 31
0.0
  0
LINE
  5
F8
330
E8
100
AcDbEntity
  8
100
  6
Continuous
 62
     7
370
    30
100
AcDbLine
 10
43.077273
 20
102.231818
 30
0.0
 11
40.070455
 21
102.661364
 31
0.0
  0
LINE
  5
F9
330
E8
100
AcDbEntity
  8
100
  6
Continuous
 62
     7
370
    30
100
AcDbLine
 10
40.070455
 20
102.661364
 30
0.0
 11
30.129545
 21
106.220455
 31
0.0
  0
LINE
  5
FA
330
E8
100
AcDbEntity
  8
100
  6
Continuous
 62
     7
370
    30
100
AcDbLine
 10
30.129545
 20
106.220455
 30
0.0
 11
19.759091
 21
109.779545
 31
0.0
  0
LINE
  5
FB
330
E8
100
AcDbEntity
  8
100
  6
Continuous
 62
     7
370
    30
100
AcDbLine
 10
19.759091
 20
109.779545
 30
0.0
 11
13.438636
 21
112.111364
 31
0.0
  0
LINE
  5
FC
330
E8
100
AcDbEntity
  8
100
  6
Continuous
 62
     7
370
    30
100
AcDbLine
 10
13.438636
 20
112.111364
 30
0.0
 11
12.088636
 21
113.215909
 31
0.0
  0
LINE
  5
FD
330
E8
100
AcDbEntity
  8
100
  6
Continuous
 62
     7
370
    30
100
AcDbLine
 10
12.088636
 20
113.215909
 30
0.0
 11
11.352273
 21
114.197727
 31
0.0
  0
LINE
  5
FE
330
E8
100
AcDbEntity
  8
100
  6
Continuous
 62
     7
370
    30
100
AcDbLine
 10
11.352273
 20
114.197727
 30
0.0
 11
11.229545
 21
116.222727
 31
0.0
  0
LINE
  5
FF
330
E8
100
AcDbEntity
  8
100
  6
Continuous
 62
     7
370
    30
100
AcDbLine
 10
11.229545
 20
116.222727
 30
0.0
 11
12.395455
 21
136.779545
 31
0.0
  0
LINE
  5
100
330
E8
100
AcDbEntity
  8
100
  6
Continuous
 62
     7
370
    30
100
AcDbLine
 10
12.395455
 20
136.779545
 30
0.0
 11
13.377273
 21
153.593182
 31
0.0
  0
LINE
  5
101
330
E8
100
AcDbEntity
  8
100
  6
Continuous
 62
     7
370
    30
100
AcDbLine
 10
13.377273
 20
153.593182
 30
0.0
 11
14.052273
 21
164.884091
 31
0.0
  0
LINE
  5
102
330
E8
100
AcDbEntity
  8
100
  6
Continuous
 62
     7
370
    30
100
AcDbLine
 10
14.052273
 20
164.884091
 30
0.0
 11
13.990909
 21
176.175
 31
0.0
  0
LINE
  5
103
330
E8
100
AcDbEntity
  8
100
  6
Continuous
 62
     7
370
    30
100
AcDbLine
 10
13.990909
 20
176.175
 30
0.0
 11
13.622727
 21
196.854545
 31
0.0
  0
LINE
  5
104
330
E8
100
AcDbEntity
  8
100
  6
Continuous
 62
     7
370
    30
100
AcDbLine
 10
13.622727
 20
196.854545
 30
0.0
 11
14.113636
 21
199.8
 31
0.0
  0
LINE
  5
105
330
E8
100
AcDbEntity
  8
100
  6
Continuous
 62
     7
370
    30
100
AcDbLine
 10
14.113636
 20
199.8
 30
0.0
 11
15.215467
 21
201.477454
 31
0.0
  0
ENDBLK
  5
EA
330
E8
100
AcDbEntity
  8
0
100
AcDbBlockEnd
  0
BLOCK
  5
108
330
107
100
AcDbEntity
  8
0
100
AcDbBlockBegin
  2
G3
 70
     0
 10
0.0
 20
0.0
 30
0.0
  3
G3
  1

  0
LINE
  5
10A
330
107
100
AcDbEntity
  8
100
  6
Continuous
 62
     7
370
    30
100
AcDbLine
 10
40.278726
 20
100.299279
 30
0.0
 11
37.8
 21
100.636364
 31
0.0
  0
LINE
  5
10B
330
107
100
AcDbEntity
  8
100
  6
Continuous
 62
     7
370
    30
100
AcDbLine
 10
37.8
 20
100.636364
 30
0.0
 11
7.486364
 21
110.638636
 31
0.0
  0
LINE
  5
10C
330
107
100
AcDbEntity
  8
100
  6
Continuous
 62
     7
370
    30
100
AcDbLine
 10
7.486364
 20
110.638636
 30
0.0
 11
5.584091
 21
113.4
 31
0.0
  0
LINE
  5
10D
330
107
100
AcDbEntity
  8
100
  6
Continuous
 62
     7
370
    30
100
AcDbLine
 10
5.584091
 20
113.4
 30
0.0
 11
5.338636
 21
115.547727
 31
0.0
  0
LINE
  5
10E
330
107
100
AcDbEntity
  8
100
  6
Continuous
 62
     7
370
    30
100
AcDbLine
 10
5.338636
 20
115.547727
 30
0.0
 11
5.031818
 21
118.922727
 31
0.0
  0
LINE
  5
10F
330
107
100
AcDbEntity
  8
100
  6
Continuous
 62
     7
370
    30
100
AcDbLine
 10
5.031818
 20
118.922727
 30
0.0
 11
5.093182
 21
132.729545
 31
0.0
  0
LINE
  5
110
330
107
100
AcDbEntity
  8
100
  6
Continuous
 62
     7
370
    30
100
AcDbLine
 10
5.093182
 20
132.729545
 30
0.0
 11
5.522727
 21
153.531818
 31
0.0
  0
LINE
  5
111
330
107
100
AcDbEntity
  8
100
  6
Continuous
 62
     7
370
    30
100
AcDbLine
 10
5.522727
 20
153.531818
 30
0.0
 11
6.381818
 21
175.561364
 31
0.0
  0
LINE
  5
112
330
107
100
AcDbEntity
  8
100
  6
Continuous
 62
     7
370
    30
100
AcDbLine
 10
6.381818
 20
175.561364
 30
0.0
 11
6.934091
 21
195.259091
 31
0.0
  0
LINE
  5
113
330
107
100
AcDbEntity
  8
100
  6
Continuous
 62
     7
370
    30
100
AcDbLine
 10
6.934091
 20
195.259091
 30
0.0
 11
7.240909
 21
198.204545
 31
0.0
  0
LINE
  5
114
330
107
100
AcDbEntity
  8
100
  6
Continuous
 62
     7
370
    30
100
AcDbLine
 10
7.240909
 20
198.204545
 30
0.0
 11
7.977273
 21
200.106818
 31
0.0
  0
LINE
  5
115
330
107
100
AcDbEntity
  8
100
  6
Continuous
 62
     7
370
    30
100
AcDbLine
 10
7.977273
 20
200.106818
 30
0.0
 11
9.388636
 21
201.763636
 31
0.0
  0
ENDBLK
  5
109
330
107
100
AcDbEntity
  8
0
100
AcDbBlockEnd
  0
BLOCK
  5
118
330
117
100
AcDbEntity
  8
0
100
AcDbBlockBegin
  2
G4
 70
     0
 10
0.0
 20
0.0
 30
0.0
  3
G4
  1

  0
LINE
  5
11A
330
117
100
AcDbEntity
  8
100
  6
Continuous
 62
     7
370
    30
100
AcDbLine
 10
16.813636
 20
119.045455
 30
0.0
 11
15.954545
 21
120.702273
 31
0.0
  0
LINE
  5
11B
330
117
100
AcDbEntity
  8
100
  6
Continuous
 62
     7
370
    30
100
AcDbLine
 10
15.954545
 20
120.702273
 30
0.0
 11
15.709091
 21
122.727273
 31
0.0
  0
LINE
  5
11C
330
117
100
AcDbEntity
  8
100
  6
Continuous
 62
     7
370
    30
100
AcDbLine
 10
15.709091
 20
122.727273
 30
0.0
 11
15.831818
 21
124.384091
 31
0.0
  0
LINE
  5
11D
330
117
100
AcDbEntity
  8
100
  6
Continuous
 62
     7
370
    30
100
AcDbLine
 10
15.831818
 20
124.384091
 30
0.0
 11
16.077273
 21
125.488636
 31
0.0
  0
LINE
  5
11E
330
117
100
AcDbEntity
  8
100
  6
Continuous
 62
     7
370
    30
100
AcDbLine
 10
16.077273
 20
125.488636
 30
0.0
 11
17.365909
 21
126.225
 31
0.0
  0
LINE
  5
11F
330
117
100
AcDbEntity
  8
100
  6
Continuous
 62
     7
370
    30
100
AcDbLine
 10
17.365909
 20
126.225
 30
0.0
 11
18.961364
 21
125.55
 31
0.0
  0
LINE
  5
120
330
117
100
AcDbEntity
  8
100
  6
Continuous
 62
     7
370
    30
100
AcDbLine
 10
18.961364
 20
125.55
 30
0.0
 11
19.820455
 21
124.077273
 31
0.0
  0
LINE
  5
121
330
117
100
AcDbEntity
  8
100
  6
Continuous
 62
     7
370
    30
100
AcDbLine
 10
19.820455
 20
124.077273
 30
0.0
 11
20.004545
 21
121.806818
 31
0.0
  0
LINE
  5
122
330
117
100
AcDbEntity
  8
100
  6
Continuous
 62
     7
370
    30
100
AcDbLine
 10
20.004545
 20
121.806818
 30
0.0
 11
19.575
 21
119.413636
 31
0.0
  0
LINE
  5
123
330
117
100
AcDbEntity
  8
100
  6
Continuous
 62
     7
370
    30
100
AcDbLine
 10
19.575
 20
119.413636
 30
0.0
 11
18.225
 21
118.554545
 31
0.0
  0
LINE
  5
124
330
117
100
AcDbEntity
  8
100
  6
Continuous
 62
     7
370
    30
100
AcDbLine
 10
18.225
 20
118.554545
 30
0.0
 11
16.813636
 21
119.045455
 31
0.0
  0
ENDBLK
  5
119
330
117
100
AcDbEntity
  8
0
100
AcDbBlockEnd
  0
BLOCK
  5
127
330
126
100
AcDbEntity
  8
0
100
AcDbBlockBegin
  2
G5
 70
     0
 10
0.0
 20
0.0
 30
0.0
  3
G5
  1

  0
LINE
  5
129
330
126
100
AcDbEntity
  8
100
  6
Continuous
 62
     7
370
    30
100
AcDbLine
 10
16.813636
 20
119.045455
 30
0.0
 11
17.764773
 21
119.260227
 31
0.0
  0
LINE
  5
12A
330
126
100
AcDbEntity
  8
100
  6
Continuous
 62
     7
370
    30
100
AcDbLine
 10
17.764773
 20
119.260227
 30
0.0
 11
18.317045
 21
119.720455
 31
0.0
  0
LINE
  5
12B
330
126
100
AcDbEntity
  8
100
  6
Continuous
 62
     7
370
    30
100
AcDbLine
 10
18.317045
 20
119.720455
 30
0.0
 11
18.685227
 21
120.395455
 31
0.0
  0
LINE
  5
12C
330
126
100
AcDbEntity
  8
100
  6
Continuous
 62
     7
370
    30
100
AcDbLine
 10
18.685227
 20
120.395455
 30
0.0
 11
18.838636
 21
121.530682
 31
0.0
  0
LINE
  5
12D
330
126
100
AcDbEntity
  8
100
  6
Continuous
 62
     7
370
    30
100
AcDbLine
 10
18.838636
 20
121.530682
 30
0.0
 11
18.807955
 21
122.543182
 31
0.0
  0
LINE
  5
12E
330
126
100
AcDbEntity
  8
100
  6
Continuous
 62
     7
370
    30
100
AcDbLine
 10
18.807955
 20
122.543182
 30
0.0
 11
18.685227
 21
123.801136
 31
0.0
  0
LINE
  5
12F
330
126
100
AcDbEntity
  8
100
  6
Continuous
 62
     7
370
    30
100
AcDbLine
 10
18.685227
 20
123.801136
 30
0.0
 11
18.255682
 21
124.690909
 31
0.0
  0
LINE
  5
130
330
126
100
AcDbEntity
  8
100
  6
Continuous
 62
     7
370
    30
100
AcDbLine
 10
18.255682
 20
124.690909
 30
0.0
 11
17.488636
 21
125.028409
 31
0.0
  0
LINE
  5
131
330
126
100
AcDbEntity
  8
100
  6
Continuous
 62
     7
370
    30
100
AcDbLine
 10
17.488636
 20
125.028409
 30
0.0
 11
16.660227
 21
125.059091
 31
0.0
  0
LINE
  5
132
330
126
100
AcDbEntity
  8
100
  6
Continuous
 62
     7
370
    30
100
AcDbLine
 10
16.660227
 20
125.059091
 30
0.0
 11
15.903289
 21
124.705709
 31
0.0
  0
LINE
  5
133
330
126
100
AcDbEntity
  8
100
  6
Continuous
 62
     7
370
    30
100
AcDbLine
 10
15.903289
 20
124.705709
 30
0.0
 11
15.809382
 21
124.081207
 31
0.0
  0
ENDBLK
  5
128
330
126
100
AcDbEntity
  8
0
100
AcDbBlockEnd
  0
BLOCK
  5
136
330
135
100
AcDbEntity
  8
0
100
AcDbBlockBegin
  2
G6
 70
     0
 10
0.0
 20
0.0
 30
0.0
  3
G6
  1

  0
LINE
  5
138
330
135
100
AcDbEntity
  8
100
  6
Continuous
 62
     7
370
    30
100
AcDbLine
 10
41.727273
 20
110.025
 30
0.0
 11
41.236364
 21
111.252273
 31
0.0
  0
LINE
  5
139
330
135
100
AcDbEntity
  8
100
  6
Continuous
 62
     7
370
    30
100
AcDbLine
 10
41.236364
 20
111.252273
 30
0.0
 11
40.868182
 21
112.571591
 31
0.0
  0
LINE
  5
13A
330
135
100
AcDbEntity
  8
100
  6
Continuous
 62
     7
370
    30
100
AcDbLine
 10
40.868182
 20
112.571591
 30
0.0
 11
40.868182
 21
113.890909
 31
0.0
  0
LINE
  5
13B
330
135
100
AcDbEntity
  8
100
  6
Continuous
 62
     7
370
    30
100
AcDbLine
 10
40.868182
 20
113.890909
 30
0.0
 11
40.990909
 21
114.995455
 31
0.0
  0
LINE
  5
13C
330
135
100
AcDbEntity
  8
100
  6
Continuous
 62
     7
370
    30
100
AcDbLine
 10
40.990909
 20
114.995455
 30
0.0
 11
41.420455
 21
115.946591
 31
0.0
  0
LINE
  5
13D
330
135
100
AcDbEntity
  8
100
  6
Continuous
 62
     7
370
    30
100
AcDbLine
 10
41.420455
 20
115.946591
 30
0.0
 11
42.126136
 21
116.529545
 31
0.0
  0
LINE
  5
13E
330
135
100
AcDbEntity
  8
100
  6
Continuous
 62
     7
370
    30
100
AcDbLine
 10
42.126136
 20
116.529545
 30
0.0
 11
43.261364
 21
116.406818
 31
0.0
  0
LINE
  5
13F
330
135
100
AcDbEntity
  8
100
  6
Continuous
 62
     7
370
    30
100
AcDbLine
 10
43.261364
 20
116.406818
 30
0.0
 11
43.997727
 21
115.793182
 31
0.0
  0
LINE
  5
140
330
135
100
AcDbEntity
  8
100
  6
Continuous
 62
     7
370
    30
100
AcDbLine
 10
43.997727
 20
115.793182
 30
0.0
 11
44.734091
 21
114.872727
 31
0.0
  0
LINE
  5
141
330
135
100
AcDbEntity
  8
100
  6
Continuous
 62
     7
370
    30
100
AcDbLine
 10
44.734091
 20
114.872727
 30
0.0
 11
44.979545
 21
113.4
 31
0.0
  0
LINE
  5
142
330
135
100
AcDbEntity
  8
100
  6
Continuous
 62
     7
370
    30
100
AcDbLine
 10
44.979545
 20
113.4
 30
0.0
 11
45.010227
 21
112.111364
 31
0.0
  0
LINE
  5
143
330
135
100
AcDbEntity
  8
100
  6
Continuous
 62
     7
370
    30
100
AcDbLine
 10
45.010227
 20
112.111364
 30
0.0
 11
44.8875
 21
110.976136
 31
0.0
  0
LINE
  5
144
330
135
100
AcDbEntity
  8
100
  6
Continuous
 62
     7
370
    30
100
AcDbLine
 10
44.8875
 20
110.976136
 30
0.0
 11
44.335227
 21
110.117045
 31
0.0
  0
LINE
  5
145
330
135
100
AcDbEntity
  8
100
  6
Continuous
 62
     7
370
    30
100
AcDbLine
 10
44.335227
 20
110.117045
 30
0.0
 11
43.568182
 21
109.319318
 31
0.0
  0
LINE
  5
146
330
135
100
AcDbEntity
  8
100
  6
Continuous
 62
     7
370
    30
100
AcDbLine
 10
43.568182
 20
109.319318
 30
0.0
 11
42.525
 21
109.380682
 31
0.0
  0
LINE
  5
147
330
135
100
AcDbEntity
  8
100
  6
Continuous
 62
     7
370
    30
100
AcDbLine
 10
42.525
 20
109.380682
 30
0.0
 11
41.727273
 21
110.025
 31
0.0
  0
ENDBLK
  5
137
330
135
100
AcDbEntity
  8
0
100
AcDbBlockEnd
  0
BLOCK
  5
14A
330
149
100
AcDbEntity
  8
0
100
AcDbBlockBegin
  2
G7
 70
     0
 10
0.0
 20
0.0
 30
0.0
  3
G7
  1

  0
LINE
  5
14C
330
149
100
AcDbEntity
  8
100
  6
Continuous
 62
     7
370
    30
100
AcDbLine
 10
41.323185
 20
115.731208
 30
0.0
 11
42.095455
 21
115.977273
 31
0.0
  0
LINE
  5
14D
330
149
100
AcDbEntity
  8
100
  6
Continuous
 62
     7
370
    30
100
AcDbLine
 10
42.095455
 20
115.977273
 30
0.0
 11
42.954545
 21
115.670455
 31
0.0
  0
LINE
  5
14E
330
149
100
AcDbEntity
  8
100
  6
Continuous
 62
     7
370
    30
100
AcDbLine
 10
42.954545
 20
115.670455
 30
0.0
 11
43.5375
 21
115.118182
 31
0.0
  0
LINE
  5
14F
330
149
100
AcDbEntity
  8
100
  6
Continuous
 62
     7
370
    30
100
AcDbLine
 10
43.5375
 20
115.118182
 30
0.0
 11
43.905682
 21
114.289773
 31
0.0
  0
LINE
  5
150
330
149
100
AcDbEntity
  8
100
  6
Continuous
 62
     7
370
    30
100
AcDbLine
 10
43.905682
 20
114.289773
 30
0.0
 11
43.967045
 21
113.031818
 31
0.0
  0
LINE
  5
151
330
149
100
AcDbEntity
  8
100
  6
Continuous
 62
     7
370
    30
100
AcDbLine
 10
43.967045
 20
113.031818
 30
0.0
 11
43.997727
 21
111.988636
 31
0.0
  0
LINE
  5
152
330
149
100
AcDbEntity
  8
100
  6
Continuous
 62
     7
370
    30
100
AcDbLine
 10
43.997727
 20
111.988636
 30
0.0
 11
43.752273
 21
111.129545
 31
0.0
  0
LINE
  5
153
330
149
100
AcDbEntity
  8
100
  6
Continuous
 62
     7
370
    30
100
AcDbLine
 10
43.752273
 20
111.129545
 30
0.0
 11
43.292045
 21
110.607955
 31
0.0
  0
LINE
  5
154
330
149
100
AcDbEntity
  8
100
  6
Continuous
 62
     7
370
    30
100
AcDbLine
 10
43.292045
 20
110.607955
 30
0.0
 11
42.678409
 21
110.3625
 31
0.0
  0
LINE
  5
155
330
149
100
AcDbEntity
  8
100
  6
Continuous
 62
     7
370
    30
100
AcDbLine
 10
42.678409
 20
110.3625
 30
0.0
 11
42.126136
 21
110.331818
 31
0.0
  0
LINE
  5
156
330
149
100
AcDbEntity
  8
100
  6
Continuous
 62
     7
370
    30
100
AcDbLine
 10
42.126136
 20
110.331818
 30
0.0
 11
41.562226
 21
110.437618
 31
0.0
  0
ENDBLK
  5
14B
330
149
100
AcDbEntity
  8
0
100
AcDbBlockEnd
  0
BLOCK
  5
159
330
158
100
AcDbEntity
  8
0
100
AcDbBlockBegin
  2
G8
 70
     0
 10
0.0
 20
0.0
 30
0.0
  3
G8
  1

  0
LINE
  5
15B
330
158
100
AcDbEntity
  8
100
  6
Continuous
 62
     7
370
    30
100
AcDbLine
 10
22.919318
 20
150.432955
 30
0.0
 11
39.855682
 21
142.455682
 31
0.0
  0
LINE
  5
15C
330
158
100
AcDbEntity
  8
100
  6
Continuous
 62
     7
370
    30
100
AcDbLine
 10
39.855682
 20
142.455682
 30
0.0
 11
40.377273
 21
140.461364
 31
0.0
  0
LINE
  5
15D
330
158
100
AcDbEntity
  8
100
  6
Continuous
 62
     7
370
    30
100
AcDbLine
 10
40.377273
 20
140.461364
 30
0.0
 11
41.911364
 21
137.884091
 31
0.0
  0
LINE
  5
15E
330
158
100
AcDbEntity
  8
100
  6
Continuous
 62
     7
370
    30
100
AcDbLine
 10
41.911364
 20
137.884091
 30
0.0
 11
44.55
 21
135.613636
 31
0.0
  0
LINE
  5
15F
330
158
100
AcDbEntity
  8
100
  6
Continuous
 62
     7
370
    30
100
AcDbLine
 10
44.55
 20
135.613636
 30
0.0
 11
46.881818
 21
133.772727
 31
0.0
  0
ENDBLK
  5
15A
330
158
100
AcDbEntity
  8
0
100
AcDbBlockEnd
  0
BLOCK
  5
162
330
161
100
AcDbEntity
  8
0
100
AcDbBlockBegin
  2
G9
 70
     0
 10
0.0
 20
0.0
 30
0.0
  3
G9
  1

  0
LINE
  5
164
330
161
100
AcDbEntity
  8
100
  6
Continuous
 62
     7
370
    30
100
AcDbLine
 10
22.919318
 20
150.432955
 30
0.0
 11
23.2875
 21
176.819318
 31
0.0
  0
LINE
  5
165
330
161
100
AcDbEntity
  8
100
  6
Continuous
 62
     7
370
    30
100
AcDbLine
 10
23.2875
 20
176.819318
 30
0.0
 11
24.6375
 21
178.046591
 31
0.0
  0
LINE
  5
166
330
161
100
AcDbEntity
  8
100
  6
Continuous
 62
     7
370
    30
100
AcDbLine
 10
24.6375
 20
178.046591
 30
0.0
 11
27.3375
 21
177.923864
 31
0.0
  0
LINE
  5
167
330
161
100
AcDbEntity
  8
100
  6
Continuous
 62
     7
370
    30
100
AcDbLine
 10
27.3375
 20
177.923864
 30
0.0
 11
47.372727
 21
180.654545
 31
0.0
  0
ENDBLK
  5
163
330
161
100
AcDbEntity
  8
0
100
AcDbBlockEnd
  0
BLOCK
  5
16A
330
169
100
AcDbEntity
  8
0
100
AcDbBlockBegin
  2
G10
 70
     0
 10
0.0
 20
0.0
 30
0.0
  3
G10
  1

  0
LINE
  5
16C
330
169
100
AcDbEntity
  8
100
  6
Continuous
 62
     7
370
    30
100
AcDbLine
 10
38.628409
 20
144.542045
 30
0.0
 11
37.922727
 21
146.475
 31
0.0
  0
LINE
  5
16D
330
169
100
AcDbEntity
  8
100
  6
Continuous
 62
     7
370
    30
100
AcDbLine
 10
37.922727
 20
146.475
 30
0.0
 11
37.984091
 21
148.254545
 31
0.0
  0
LINE
  5
16E
330
169
100
AcDbEntity
  8
100
  6
Continuous
 62
     7
370
    30
100
AcDbLine
 10
37.984091
 20
148.254545
 30
0.0
 11
39.088636
 21
161.877273
 31
0.0
  0
LINE
  5
16F
330
169
100
AcDbEntity
  8
100
  6
Continuous
 62
     7
370
    30
100
AcDbLine
 10
39.088636
 20
161.877273
 30
0.0
 11
42.340909
 21
165.681818
 31
0.0
  0
LINE
  5
170
330
169
100
AcDbEntity
  8
100
  6
Continuous
 62
     7
370
    30
100
AcDbLine
 10
42.340909
 20
165.681818
 30
0.0
 11
45.040909
 21
168.259091
 31
0.0
  0
LINE
  5
171
330
169
100
AcDbEntity
  8
100
  6
Continuous
 62
     7
370
    30
100
AcDbLine
 10
45.040909
 20
168.259091
 30
0.0
 11
48.170455
 21
170.038636
 31
0.0
  0
LINE
  5
172
330
169
100
AcDbEntity
  8
100
  6
Continuous
 62
     7
370
    30
100
AcDbLine
 10
48.170455
 20
170.038636
 30
0.0
 11
52.956818
 21
172.247727
 31
0.0
  0
LINE
  5
173
330
169
100
AcDbEntity
  8
100
  6
Continuous
 62
     7
370
    30
100
AcDbLine
 10
52.956818
 20
172.247727
 30
0.0
 11
55.534091
 21
191.147727
 31
0.0
  0
LINE
  5
174
330
169
100
AcDbEntity
  8
100
  6
Continuous
 62
     7
370
    30
100
AcDbLine
 10
55.534091
 20
191.147727
 30
0.0
 11
57.006818
 21
193.479545
 31
0.0
  0
LINE
  5
175
330
169
100
AcDbEntity
  8
100
  6
Continuous
 62
     7
370
    30
100
AcDbLine
 10
57.006818
 20
193.479545
 30
0.0
 11
60.443182
 21
196.793182
 31
0.0
  0
LINE
  5
176
330
169
100
AcDbEntity
  8
100
  6
Continuous
 62
     7
370
    30
100
AcDbLine
 10
60.443182
 20
196.793182
 30
0.0
 11
66.825
 21
201.579545
 31
0.0
  0
LINE
  5
177
330
169
100
AcDbEntity
  8
100
  6
Continuous
 62
     7
370
    30
100
AcDbLine
 10
66.825
 20
201.579545
 30
0.0
 11
74.065909
 21
204.770455
 31
0.0
  0
LINE
  5
178
330
169
100
AcDbEntity
  8
100
  6
Continuous
 62
     7
370
    30
100
AcDbLine
 10
74.065909
 20
204.770455
 30
0.0
 11
83.270455
 21
206.979545
 31
0.0
  0
LINE
  5
179
330
169
100
AcDbEntity
  8
100
  6
Continuous
 62
     7
370
    30
100
AcDbLine
 10
83.270455
 20
206.979545
 30
0.0
 11
92.475
 21
208.697727
 31
0.0
  0
LINE
  5
17A
330
169
100
AcDbEntity
  8
100
  6
Continuous
 62
     7
370
    30
100
AcDbLine
 10
92.475
 20
208.697727
 30
0.0
 11
101.188636
 21
209.311364
 31
0.0
  0
LINE
  5
17B
330
169
100
AcDbEntity
  8
100
  6
Continuous
 62
     7
370
    30
100
AcDbLine
 10
101.188636
 20
209.311364
 30
0.0
 11
107.386364
 21
209.372727
 31
0.0
  0
LINE
  5
17C
330
169
100
AcDbEntity
  8
100
  6
Continuous
 62
     7
370
    30
100
AcDbLine
 10
107.386364
 20
209.372727
 30
0.0
 11
112.295455
 21
209.188636
 31
0.0
  0
LINE
  5
17D
330
169
100
AcDbEntity
  8
100
  6
Continuous
 62
     7
370
    30
100
AcDbLine
 10
112.295455
 20
209.188636
 30
0.0
 11
118.431818
 21
209.004545
 31
0.0
  0
LINE
  5
17E
330
169
100
AcDbEntity
  8
100
  6
Continuous
 62
     7
370
    30
100
AcDbLine
 10
118.431818
 20
209.004545
 30
0.0
 11
124.690909
 21
207.961364
 31
0.0
  0
LINE
  5
17F
330
169
100
AcDbEntity
  8
100
  6
Continuous
 62
     7
370
    30
100
AcDbLine
 10
124.690909
 20
207.961364
 30
0.0
 11
132.852273
 21
206.365909
 31
0.0
  0
LINE
  5
180
330
169
100
AcDbEntity
  8
100
  6
Continuous
 62
     7
370
    30
100
AcDbLine
 10
132.852273
 20
206.365909
 30
0.0
 11
140.215909
 21
204.402273
 31
0.0
  0
LINE
  5
181
330
169
100
AcDbEntity
  8
100
  6
Continuous
 62
     7
370
    30
100
AcDbLine
 10
140.215909
 20
204.402273
 30
0.0
 11
147.088636
 21
201.640909
 31
0.0
  0
LINE
  5
182
330
169
100
AcDbEntity
  8
100
  6
Continuous
 62
     7
370
    30
100
AcDbLine
 10
147.088636
 20
201.640909
 30
0.0
 11
152.120455
 21
199.002273
 31
0.0
  0
LINE
  5
183
330
169
100
AcDbEntity
  8
100
  6
Continuous
 62
     7
370
    30
100
AcDbLine
 10
152.120455
 20
199.002273
 30
0.0
 11
155.740909
 21
195.627273
 31
0.0
  0
LINE
  5
184
330
169
100
AcDbEntity
  8
100
  6
Continuous
 62
     7
370
    30
100
AcDbLine
 10
155.740909
 20
195.627273
 30
0.0
 11
157.827273
 21
192.865909
 31
0.0
  0
LINE
  5
185
330
169
100
AcDbEntity
  8
100
  6
Continuous
 62
     7
370
    30
100
AcDbLine
 10
157.827273
 20
192.865909
 30
0.0
 11
158.931818
 21
190.104545
 31
0.0
  0
LINE
  5
186
330
169
100
AcDbEntity
  8
100
  6
Continuous
 62
     7
370
    30
100
AcDbLine
 10
158.931818
 20
190.104545
 30
0.0
 11
159.975
 21
181.452273
 31
0.0
  0
LINE
  5
187
330
169
100
AcDbEntity
  8
100
  6
Continuous
 62
     7
370
    30
100
AcDbLine
 10
159.975
 20
181.452273
 30
0.0
 11
160.588636
 21
172.554545
 31
0.0
  0
ENDBLK
  5
16B
330
169
100
AcDbEntity
  8
0
100
AcDbBlockEnd
  0
BLOCK
  5
18A
330
189
100
AcDbEntity
  8
0
100
AcDbBlockBegin
  2
G11
 70
     0
 10
0.0
 20
0.0
 30
0.0
  3
G11
  1

  0
LINE
  5
18C
330
189
100
AcDbEntity
  8
100
  6
Continuous
 62
     7
370
    30
100
AcDbLine
 10
18.225
 20
191.853409
 30
0.0
 11
19.360227
 21
191.914773
 31
0.0
  0
LINE
  5
18D
330
189
100
AcDbEntity
  8
100
  6
Continuous
 62
     7
370
    30
100
AcDbLine
 10
19.360227
 20
191.914773
 30
0.0
 11
20.25
 21
191.454545
 31
0.0
  0
LINE
  5
18E
330
189
100
AcDbEntity
  8
100
  6
Continuous
 62
     7
370
    30
100
AcDbLine
 10
20.25
 20
191.454545
 30
0.0
 11
21.231818
 21
190.257955
 31
0.0
  0
LINE
  5
18F
330
189
100
AcDbEntity
  8
100
  6
Continuous
 62
     7
370
    30
100
AcDbLine
 10
21.231818
 20
190.257955
 30
0.0
 11
22.029545
 21
188.846591
 31
0.0
  0
LINE
  5
190
330
189
100
AcDbEntity
  8
100
  6
Continuous
 62
     7
370
    30
100
AcDbLine
 10
22.029545
 20
188.846591
 30
0.0
 11
22.213636
 21
187.711364
 31
0.0
  0
LINE
  5
191
330
189
100
AcDbEntity
  8
100
  6
Continuous
 62
     7
370
    30
100
AcDbLine
 10
22.213636
 20
187.711364
 30
0.0
 11
22.213636
 21
186.790909
 31
0.0
  0
LINE
  5
192
330
189
100
AcDbEntity
  8
100
  6
Continuous
 62
     7
370
    30
100
AcDbLine
 10
22.213636
 20
186.790909
 30
0.0
 11
21.538636
 21
185.686364
 31
0.0
  0
LINE
  5
193
330
189
100
AcDbEntity
  8
100
  6
Continuous
 62
     7
370
    30
100
AcDbLine
 10
21.538636
 20
185.686364
 30
0.0
 11
20.495455
 21
185.226136
 31
0.0
  0
LINE
  5
194
330
189
100
AcDbEntity
  8
100
  6
Continuous
 62
     7
370
    30
100
AcDbLine
 10
20.495455
 20
185.226136
 30
0.0
 11
19.667045
 21
185.348864
 31
0.0
  0
LINE
  5
195
330
189
100
AcDbEntity
  8
100
  6
Continuous
 62
     7
370
    30
100
AcDbLine
 10
19.667045
 20
185.348864
 30
0.0
 11
18.623864
 21
186.361364
 31
0.0
  0
LINE
  5
196
330
189
100
AcDbEntity
  8
100
  6
Continuous
 62
     7
370
    30
100
AcDbLine
 10
18.623864
 20
186.361364
 30
0.0
 11
17.8875
 21
187.496591
 31
0.0
  0
LINE
  5
197
330
189
100
AcDbEntity
  8
100
  6
Continuous
 62
     7
370
    30
100
AcDbLine
 10
17.8875
 20
187.496591
 30
0.0
 11
17.457955
 21
188.693182
 31
0.0
  0
LINE
  5
198
330
189
100
AcDbEntity
  8
100
  6
Continuous
 62
     7
370
    30
100
AcDbLine
 10
17.457955
 20
188.693182
 30
0.0
 11
17.273864
 21
190.0125
 31
0.0
  0
LINE
  5
199
330
189
100
AcDbEntity
  8
100
  6
Continuous
 62
     7
370
    30
100
AcDbLine
 10
17.273864
 20
190.0125
 30
0.0
 11
17.335227
 21
190.963636
 31
0.0
  0
LINE
  5
19A
330
189
100
AcDbEntity
  8
100
  6
Continuous
 62
     7
370
    30
100
AcDbLine
 10
17.335227
 20
190.963636
 30
0.0
 11
17.55
 21
191.546591
 31
0.0
  0
LINE
  5
19B
330
189
100
AcDbEntity
  8
100
  6
Continuous
 62
     7
370
    30
100
AcDbLine
 10
17.55
 20
191.546591
 30
0.0
 11
18.225
 21
191.853409
 31
0.0
  0
ENDBLK
  5
18B
330
189
100
AcDbEntity
  8
0
100
AcDbBlockEnd
  0
BLOCK
  5
19E
330
19D
100
AcDbEntity
  8
0
100
AcDbBlockBegin
  2
G12
 70
     0
 10
0.0
 20
0.0
 30
0.0
  3
G12
  1

  0
LINE
  5
1A0
330
19D
100
AcDbEntity
  8
100
  6
Continuous
 62
     7
370
    30
100
AcDbLine
 10
18.986504
 20
191.894571
 30
0.0
 11
19.820455
 21
190.871591
 31
0.0
  0
LINE
  5
1A1
330
19D
100
AcDbEntity
  8
100
  6
Continuous
 62
     7
370
    30
100
AcDbLine
 10
19.820455
 20
190.871591
 30
0.0
 11
20.526136
 21
189.736364
 31
0.0
  0
LINE
  5
1A2
330
19D
100
AcDbEntity
  8
100
  6
Continuous
 62
     7
370
    30
100
AcDbLine
 10
20.526136
 20
189.736364
 30
0.0
 11
21.047727
 21
188.754545
 31
0.0
  0
LINE
  5
1A3
330
19D
100
AcDbEntity
  8
100
  6
Continuous
 62
     7
370
    30
100
AcDbLine
 10
21.047727
 20
188.754545
 30
0.0
 11
21.047727
 21
187.864773
 31
0.0
  0
LINE
  5
1A4
330
19D
100
AcDbEntity
  8
100
  6
Continuous
 62
     7
370
    30
100
AcDbLine
 10
21.047727
 20
187.864773
 30
0.0
 11
20.5875
 21
187.3125
 31
0.0
  0
LINE
  5
1A5
330
19D
100
AcDbEntity
  8
100
  6
Continuous
 62
     7
370
    30
100
AcDbLine
 10
20.5875
 20
187.3125
 30
0.0
 11
20.157955
 21
186.760227
 31
0.0
  0
LINE
  5
1A6
330
19D
100
AcDbEntity
  8
100
  6
Continuous
 62
     7
370
    30
100
AcDbLine
 10
20.157955
 20
186.760227
 30
0.0
 11
19.513636
 21
186.606818
 31
0.0
  0
LINE
  5
1A7
330
19D
100
AcDbEntity
  8
100
  6
Continuous
 62
     7
370
    30
100
AcDbLine
 10
19.513636
 20
186.606818
 30
0.0
 11
18.506878
 21
186.541716
 31
0.0
  0
ENDBLK
  5
19F
330
19D
100
AcDbEntity
  8
0
100
AcDbBlockEnd
  0
BLOCK
  5
1AA
330
1A9
100
AcDbEntity
  8
0
100
AcDbBlockBegin
  2
G13
 70
     0
 10
0.0
 20
0.0
 30
0.0
  3
G13
  1

  0
LINE
  5
1AC
330
1A9
100
AcDbEntity
  8
100
  6
Continuous
 62
     7
370
    30
100
AcDbLine
 10
52.956818
 20
172.247727
 30
0.0
 11
58.479545
 21
174.579545
 31
0.0
  0
LINE
  5
1AD
330
1A9
100
AcDbEntity
  8
100
  6
Continuous
 62
     7
370
    30
100
AcDbLine
 10
58.479545
 20
174.579545
 30
0.0
 11
65.475
 21
176.420455
 31
0.0
  0
LINE
  5
1AE
330
1A9
100
AcDbEntity
  8
100
  6
Continuous
 62
     7
370
    30
100
AcDbLine
 10
65.475
 20
176.420455
 30
0.0
 11
71.427273
 21
177.831818
 31
0.0
  0
LINE
  5
1AF
330
1A9
100
AcDbEntity
  8
100
  6
Continuous
 62
     7
370
    30
100
AcDbLine
 10
71.427273
 20
177.831818
 30
0.0
 11
77.195455
 21
178.752273
 31
0.0
  0
LINE
  5
1B0
330
1A9
100
AcDbEntity
  8
100
  6
Continuous
 62
     7
370
    30
100
AcDbLine
 10
77.195455
 20
178.752273
 30
0.0
 11
85.602273
 21
179.734091
 31
0.0
  0
LINE
  5
1B1
330
1A9
100
AcDbEntity
  8
100
  6
Continuous
 62
     7
370
    30
100
AcDbLine
 10
85.602273
 20
179.734091
 30
0.0
 11
94.622727
 21
180.470455
 31
0.0
  0
LINE
  5
1B2
330
1A9
100
AcDbEntity
  8
100
  6
Continuous
 62
     7
370
    30
100
AcDbLine
 10
94.622727
 20
180.470455
 30
0.0
 11
103.029545
 21
180.9
 31
0.0
  0
LINE
  5
1B3
330
1A9
100
AcDbEntity
  8
100
  6
Continuous
 62
     7
370
    30
100
AcDbLine
 10
103.029545
 20
180.9
 30
0.0
 11
117.020455
 21
180.654545
 31
0.0
  0
LINE
  5
1B4
330
1A9
100
AcDbEntity
  8
100
  6
Continuous
 62
     7
370
    30
100
AcDbLine
 10
117.020455
 20
180.654545
 30
0.0
 11
127.145455
 21
180.163636
 31
0.0
  0
LINE
  5
1B5
330
1A9
100
AcDbEntity
  8
100
  6
Continuous
 62
     7
370
    30
100
AcDbLine
 10
127.145455
 20
180.163636
 30
0.0
 11
136.165909
 21
179.181818
 31
0.0
  0
LINE
  5
1B6
330
1A9
100
AcDbEntity
  8
100
  6
Continuous
 62
     7
370
    30
100
AcDbLine
 10
136.165909
 20
179.181818
 30
0.0
 11
145.186364
 21
177.709091
 31
0.0
  0
LINE
  5
1B7
330
1A9
100
AcDbEntity
  8
100
  6
Continuous
 62
     7
370
    30
100
AcDbLine
 10
145.186364
 20
177.709091
 30
0.0
 11
153.777273
 21
175.377273
 31
0.0
  0
LINE
  5
1B8
330
1A9
100
AcDbEntity
  8
100
  6
Continuous
 62
     7
370
    30
100
AcDbLine
 10
153.777273
 20
175.377273
 30
0.0
 11
161.386364
 21
172.186364
 31
0.0
  0
LINE
  5
1B9
330
1A9
100
AcDbEntity
  8
100
  6
Continuous
 62
     7
370
    30
100
AcDbLine
 10
161.386364
 20
172.186364
 30
0.0
 11
166.540909
 21
170.038636
 31
0.0
  0
LINE
  5
1BA
330
1A9
100
AcDbEntity
  8
100
  6
Continuous
 62
     7
370
    30
100
AcDbLine
 10
166.540909
 20
170.038636
 30
0.0
 11
170.775
 21
167.338636
 31
0.0
  0
LINE
  5
1BB
330
1A9
100
AcDbEntity
  8
100
  6
Continuous
 62
     7
370
    30
100
AcDbLine
 10
170.775
 20
167.338636
 30
0.0
 11
173.413636
 21
164.761364
 31
0.0
  0
LINE
  5
1BC
330
1A9
100
AcDbEntity
  8
100
  6
Continuous
 62
     7
370
    30
100
AcDbLine
 10
173.413636
 20
164.761364
 30
0.0
 11
174.579545
 21
162.552273
 31
0.0
  0
LINE
  5
1BD
330
1A9
100
AcDbEntity
  8
100
  6
Continuous
 62
     7
370
    30
100
AcDbLine
 10
174.579545
 20
162.552273
 30
0.0
 11
175.070455
 21
146.843182
 31
0.0
  0
LINE
  5
1BE
330
1A9
100
AcDbEntity
  8
100
  6
Continuous
 62
     7
370
    30
100
AcDbLine
 10
175.070455
 20
146.843182
 30
0.0
 11
172.922727
 21
149.85
 31
0.0
  0
LINE
  5
1BF
330
1A9
100
AcDbEntity
  8
100
  6
Continuous
 62
     7
370
    30
100
AcDbLine
 10
172.922727
 20
149.85
 30
0.0
 11
169.056818
 21
152.427273
 31
0.0
  0
LINE
  5
1C0
330
1A9
100
AcDbEntity
  8
100
  6
Continuous
 62
     7
370
    30
100
AcDbLine
 10
169.056818
 20
152.427273
 30
0.0
 11
163.840909
 21
154.943182
 31
0.0
  0
LINE
  5
1C1
330
1A9
100
AcDbEntity
  8
100
  6
Continuous
 62
     7
370
    30
100
AcDbLine
 10
163.840909
 20
154.943182
 30
0.0
 11
156.845455
 21
157.152273
 31
0.0
  0
LINE
  5
1C2
330
1A9
100
AcDbEntity
  8
100
  6
Continuous
 62
     7
370
    30
100
AcDbLine
 10
156.845455
 20
157.152273
 30
0.0
 11
149.972727
 21
158.931818
 31
0.0
  0
LINE
  5
1C3
330
1A9
100
AcDbEntity
  8
100
  6
Continuous
 62
     7
370
    30
100
AcDbLine
 10
149.972727
 20
158.931818
 30
0.0
 11
142.240909
 21
160.588636
 31
0.0
  0
LINE
  5
1C4
330
1A9
100
AcDbEntity
  8
100
  6
Continuous
 62
     7
370
    30
100
AcDbLine
 10
142.240909
 20
160.588636
 30
0.0
 11
132.238636
 21
161.693182
 31
0.0
  0
LINE
  5
1C5
330
1A9
100
AcDbEntity
  8
100
  6
Continuous
 62
     7
370
    30
100
AcDbLine
 10
132.238636
 20
161.693182
 30
0.0
 11
121.868182
 21
162.306818
 31
0.0
  0
LINE
  5
1C6
330
1A9
100
AcDbEntity
  8
100
  6
Continuous
 62
     7
370
    30
100
AcDbLine
 10
121.868182
 20
162.306818
 30
0.0
 11
112.111364
 21
162.245455
 31
0.0
  0
LINE
  5
1C7
330
1A9
100
AcDbEntity
  8
100
  6
Continuous
 62
     7
370
    30
100
AcDbLine
 10
112.111364
 20
162.245455
 30
0.0
 11
102.722727
 21
162.368182
 31
0.0
  0
LINE
  5
1C8
330
1A9
100
AcDbEntity
  8
100
  6
Continuous
 62
     7
370
    30
100
AcDbLine
 10
102.722727
 20
162.368182
 30
0.0
 11
95.972727
 21
162.306818
 31
0.0
  0
LINE
  5
1C9
330
1A9
100
AcDbEntity
  8
100
  6
Continuous
 62
     7
370
    30
100
AcDbLine
 10
95.972727
 20
162.306818
 30
0.0
 11
89.775
 21
161.938636
 31
0.0
  0
LINE
  5
1CA
330
1A9
100
AcDbEntity
  8
100
  6
Continuous
 62
     7
370
    30
100
AcDbLine
 10
89.775
 20
161.938636
 30
0.0
 11
81.368182
 21
161.018182
 31
0.0
  0
LINE
  5
1CB
330
1A9
100
AcDbEntity
  8
100
  6
Continuous
 62
     7
370
    30
100
AcDbLine
 10
81.368182
 20
161.018182
 30
0.0
 11
70.261364
 21
159.361364
 31
0.0
  0
LINE
  5
1CC
330
1A9
100
AcDbEntity
  8
100
  6
Continuous
 62
     7
370
    30
100
AcDbLine
 10
70.261364
 20
159.361364
 30
0.0
 11
60.136364
 21
157.152273
 31
0.0
  0
LINE
  5
1CD
330
1A9
100
AcDbEntity
  8
100
  6
Continuous
 62
     7
370
    30
100
AcDbLine
 10
60.136364
 20
157.152273
 30
0.0
 11
54.061364
 21
155.372727
 31
0.0
  0
LINE
  5
1CE
330
1A9
100
AcDbEntity
  8
100
  6
Continuous
 62
     7
370
    30
100
AcDbLine
 10
54.061364
 20
155.372727
 30
0.0
 11
47.25
 21
152.55
 31
0.0
  0
LINE
  5
1CF
330
1A9
100
AcDbEntity
  8
100
  6
Continuous
 62
     7
370
    30
100
AcDbLine
 10
47.25
 20
152.55
 30
0.0
 11
43.015909
 21
150.156818
 31
0.0
  0
LINE
  5
1D0
330
1A9
100
AcDbEntity
  8
100
  6
Continuous
 62
     7
370
    30
100
AcDbLine
 10
43.015909
 20
150.156818
 30
0.0
 11
40.438636
 21
147.702273
 31
0.0
  0
LINE
  5
1D1
330
1A9
100
AcDbEntity
  8
100
  6
Continuous
 62
     7
370
    30
100
AcDbLine
 10
40.438636
 20
147.702273
 30
0.0
 11
39.456818
 21
145.370455
 31
0.0
  0
LINE
  5
1D2
330
1A9
100
AcDbEntity
  8
100
  6
Continuous
 62
     7
370
    30
100
AcDbLine
 10
39.456818
 20
145.370455
 30
0.0
 11
39.855682
 21
142.455682
 31
0.0
  0
LINE
  5
1D3
330
1A9
100
AcDbEntity
  8
100
  6
Continuous
 62
     7
370
    30
100
AcDbLine
 10
39.855682
 20
142.455682
 30
0.0
 11
38.628409
 21
144.542045
 31
0.0
  0
ENDBLK
  5
1AB
330
1A9
100
AcDbEntity
  8
0
100
AcDbBlockEnd
  0
BLOCK
  5
1D6
330
1D5
100
AcDbEntity
  8
0
100
AcDbBlockBegin
  2
G14
 70
     0
 10
0.0
 20
0.0
 30
0.0
  3
G14
  1

  0
LINE
  5
1D8
330
1D5
100
AcDbEntity
  8
100
  6
Continuous
 62
     7
370
    30
100
AcDbLine
 10
46.881818
 20
136.043182
 30
0.0
 11
44.304545
 21
138.129545
 31
0.0
  0
LINE
  5
1D9
330
1D5
100
AcDbEntity
  8
100
  6
Continuous
 62
     7
370
    30
100
AcDbLine
 10
44.304545
 20
138.129545
 30
0.0
 11
42.525
 21
140.4
 31
0.0
  0
LINE
  5
1DA
330
1D5
100
AcDbEntity
  8
100
  6
Continuous
 62
     7
370
    30
100
AcDbLine
 10
42.525
 20
140.4
 30
0.0
 11
41.665909
 21
142.854545
 31
0.0
  0
LINE
  5
1DB
330
1D5
100
AcDbEntity
  8
100
  6
Continuous
 62
     7
370
    30
100
AcDbLine
 10
41.665909
 20
142.854545
 30
0.0
 11
41.727273
 21
145.186364
 31
0.0
  0
LINE
  5
1DC
330
1D5
100
AcDbEntity
  8
100
  6
Continuous
 62
     7
370
    30
100
AcDbLine
 10
41.727273
 20
145.186364
 30
0.0
 11
43.445455
 21
148.131818
 31
0.0
  0
LINE
  5
1DD
330
1D5
100
AcDbEntity
  8
100
  6
Continuous
 62
     7
370
    30
100
AcDbLine
 10
43.445455
 20
148.131818
 30
0.0
 11
46.145455
 21
150.340909
 31
0.0
  0
LINE
  5
1DE
330
1D5
100
AcDbEntity
  8
100
  6
Continuous
 62
     7
370
    30
100
AcDbLine
 10
46.145455
 20
150.340909
 30
0.0
 11
49.643182
 21
151.997727
 31
0.0
  0
LINE
  5
1DF
330
1D5
100
AcDbEntity
  8
100
  6
Continuous
 62
     7
370
    30
100
AcDbLine
 10
49.643182
 20
151.997727
 30
0.0
 11
53.754545
 21
153.715909
 31
0.0
  0
LINE
  5
1E0
330
1D5
100
AcDbEntity
  8
100
  6
Continuous
 62
     7
370
    30
100
AcDbLine
 10
53.754545
 20
153.715909
 30
0.0
 11
58.602273
 21
155.434091
 31
0.0
  0
LINE
  5
1E1
330
1D5
100
AcDbEntity
  8
100
  6
Continuous
 62
     7
370
    30
100
AcDbLine
 10
58.602273
 20
155.434091
 30
0.0
 11
64.247727
 21
156.968182
 31
0.0
  0
LINE
  5
1E2
330
1D5
100
AcDbEntity
  8
100
  6
Continuous
 62
     7
370
    30
100
AcDbLine
 10
64.247727
 20
156.968182
 30
0.0
 11
70.690909
 21
158.318182
 31
0.0
  0
LINE
  5
1E3
330
1D5
100
AcDbEntity
  8
100
  6
Continuous
 62
     7
370
    30
100
AcDbLine
 10
70.690909
 20
158.318182
 30
0.0
 11
75.784091
 21
159.238636
 31
0.0
  0
LINE
  5
1E4
330
1D5
100
AcDbEntity
  8
100
  6
Continuous
 62
     7
370
    30
100
AcDbLine
 10
75.784091
 20
159.238636
 30
0.0
 11
80.877273
 21
160.036364
 31
0.0
  0
LINE
  5
1E5
330
1D5
100
AcDbEntity
  8
100
  6
Continuous
 62
     7
370
    30
100
AcDbLine
 10
80.877273
 20
160.036364
 30
0.0
 11
85.847727
 21
160.527273
 31
0.0
  0
LINE
  5
1E6
330
1D5
100
AcDbEntity
  8
100
  6
Continuous
 62
     7
370
    30
100
AcDbLine
 10
85.847727
 20
160.527273
 30
0.0
 11
93.395455
 21
161.079545
 31
0.0
  0
LINE
  5
1E7
330
1D5
100
AcDbEntity
  8
100
  6
Continuous
 62
     7
370
    30
100
AcDbLine
 10
93.395455
 20
161.079545
 30
0.0
 11
99.409091
 21
161.325
 31
0.0
  0
LINE
  5
1E8
330
1D5
100
AcDbEntity
  8
100
  6
Continuous
 62
     7
370
    30
100
AcDbLine
 10
99.409091
 20
161.325
 30
0.0
 11
105.3
 21
161.509091
 31
0.0
  0
LINE
  5
1E9
330
1D5
100
AcDbEntity
  8
100
  6
Continuous
 62
     7
370
    30
100
AcDbLine
 10
105.3
 20
161.509091
 30
0.0
 11
112.111364
 21
161.631818
 31
0.0
  0
LINE
  5
1EA
330
1D5
100
AcDbEntity
  8
100
  6
Continuous
 62
     7
370
    30
100
AcDbLine
 10
112.111364
 20
161.631818
 30
0.0
 11
120.579545
 21
161.509091
 31
0.0
  0
LINE
  5
1EB
330
1D5
100
AcDbEntity
  8
100
  6
Continuous
 62
     7
370
    30
100
AcDbLine
 10
120.579545
 20
161.509091
 30
0.0
 11
129.784091
 21
160.895455
 31
0.0
  0
LINE
  5
1EC
330
1D5
100
AcDbEntity
  8
100
  6
Continuous
 62
     7
370
    30
100
AcDbLine
 10
129.784091
 20
160.895455
 30
0.0
 11
135.490909
 21
160.527273
 31
0.0
  0
LINE
  5
1ED
330
1D5
100
AcDbEntity
  8
100
  6
Continuous
 62
     7
370
    30
100
AcDbLine
 10
135.490909
 20
160.527273
 30
0.0
 11
142.363636
 21
159.729545
 31
0.0
  0
LINE
  5
1EE
330
1D5
100
AcDbEntity
  8
100
  6
Continuous
 62
     7
370
    30
100
AcDbLine
 10
142.363636
 20
159.729545
 30
0.0
 11
148.684091
 21
158.318182
 31
0.0
  0
LINE
  5
1EF
330
1D5
100
AcDbEntity
  8
100
  6
Continuous
 62
     7
370
    30
100
AcDbLine
 10
148.684091
 20
158.318182
 30
0.0
 11
154.697727
 21
156.722727
 31
0.0
  0
LINE
  5
1F0
330
1D5
100
AcDbEntity
  8
100
  6
Continuous
 62
     7
370
    30
100
AcDbLine
 10
154.697727
 20
156.722727
 30
0.0
 11
161.140909
 21
154.575
 31
0.0
  0
LINE
  5
1F1
330
1D5
100
AcDbEntity
  8
100
  6
Continuous
 62
     7
370
    30
100
AcDbLine
 10
161.140909
 20
154.575
 30
0.0
 11
165.559091
 21
152.55
 31
0.0
  0
LINE
  5
1F2
330
1D5
100
AcDbEntity
  8
100
  6
Continuous
 62
     7
370
    30
100
AcDbLine
 10
165.559091
 20
152.55
 30
0.0
 11
168.995455
 21
150.586364
 31
0.0
  0
LINE
  5
1F3
330
1D5
100
AcDbEntity
  8
100
  6
Continuous
 62
     7
370
    30
100
AcDbLine
 10
168.995455
 20
150.586364
 30
0.0
 11
171.572727
 21
148.868182
 31
0.0
  0
LINE
  5
1F4
330
1D5
100
AcDbEntity
  8
100
  6
Continuous
 62
     7
370
    30
100
AcDbLine
 10
171.572727
 20
148.868182
 30
0.0
 11
173.290909
 21
146.720455
 31
0.0
  0
LINE
  5
1F5
330
1D5
100
AcDbEntity
  8
100
  6
Continuous
 62
     7
370
    30
100
AcDbLine
 10
173.290909
 20
146.720455
 30
0.0
 11
174.088636
 21
143.836364
 31
0.0
  0
LINE
  5
1F6
330
1D5
100
AcDbEntity
  8
100
  6
Continuous
 62
     7
370
    30
100
AcDbLine
 10
174.088636
 20
143.836364
 30
0.0
 11
173.536364
 21
141.443182
 31
0.0
  0
LINE
  5
1F7
330
1D5
100
AcDbEntity
  8
100
  6
Continuous
 62
     7
370
    30
100
AcDbLine
 10
173.536364
 20
141.443182
 30
0.0
 11
172.063636
 21
139.295455
 31
0.0
  0
LINE
  5
1F8
330
1D5
100
AcDbEntity
  8
100
  6
Continuous
 62
     7
370
    30
100
AcDbLine
 10
172.063636
 20
139.295455
 30
0.0
 11
170.284091
 21
137.7
 31
0.0
  0
LINE
  5
1F9
330
1D5
100
AcDbEntity
  8
100
  6
Continuous
 62
     7
370
    30
100
AcDbLine
 10
170.284091
 20
137.7
 30
0.0
 11
171.818182
 21
138.313636
 31
0.0
  0
LINE
  5
1FA
330
1D5
100
AcDbEntity
  8
100
  6
Continuous
 62
     7
370
    30
100
AcDbLine
 10
171.818182
 20
138.313636
 30
0.0
 11
173.536364
 21
139.540909
 31
0.0
  0
LINE
  5
1FB
330
1D5
100
AcDbEntity
  8
100
  6
Continuous
 62
     7
370
    30
100
AcDbLine
 10
173.536364
 20
139.540909
 30
0.0
 11
174.886364
 21
140.706818
 31
0.0
  0
LINE
  5
1FC
330
1D5
100
AcDbEntity
  8
100
  6
Continuous
 62
     7
370
    30
100
AcDbLine
 10
174.886364
 20
140.706818
 30
0.0
 11
175.377273
 21
142.240909
 31
0.0
  0
LINE
  5
1FD
330
1D5
100
AcDbEntity
  8
100
  6
Continuous
 62
     7
370
    30
100
AcDbLine
 10
175.377273
 20
142.240909
 30
0.0
 11
175.438636
 21
144.327273
 31
0.0
  0
LINE
  5
1FE
330
1D5
100
AcDbEntity
  8
100
  6
Continuous
 62
     7
370
    30
100
AcDbLine
 10
175.438636
 20
144.327273
 30
0.0
 11
175.070455
 21
146.843182
 31
0.0
  0
ENDBLK
  5
1D7
330
1D5
100
AcDbEntity
  8
0
100
AcDbBlockEnd
  0
BLOCK
  5
201
330
200
100
AcDbEntity
  8
0
100
AcDbBlockBegin
  2
G15
 70
     0
 10
0.0
 20
0.0
 30
0.0
  3
G15
  1

  0
LINE
  5
203
330
200
100
AcDbEntity
  8
100
  6
Continuous
 62
     7
370
    30
100
AcDbLine
 10
170.621591
 20
138.620455
 30
0.0
 11
171.756818
 21
140.307955
 31
0.0
  0
LINE
  5
204
330
200
100
AcDbEntity
  8
100
  6
Continuous
 62
     7
370
    30
100
AcDbLine
 10
171.756818
 20
140.307955
 30
0.0
 11
172.339773
 21
142.332955
 31
0.0
  0
LINE
  5
205
330
200
100
AcDbEntity
  8
100
  6
Continuous
 62
     7
370
    30
100
AcDbLine
 10
172.339773
 20
142.332955
 30
0.0
 11
172.830682
 21
144.480682
 31
0.0
  0
LINE
  5
206
330
200
100
AcDbEntity
  8
100
  6
Continuous
 62
     7
370
    30
100
AcDbLine
 10
172.830682
 20
144.480682
 30
0.0
 11
172.585227
 21
146.475
 31
0.0
  0
LINE
  5
207
330
200
100
AcDbEntity
  8
100
  6
Continuous
 62
     7
370
    30
100
AcDbLine
 10
172.585227
 20
146.475
 30
0.0
 11
171.204545
 21
148.193182
 31
0.0
  0
LINE
  5
208
330
200
100
AcDbEntity
  8
100
  6
Continuous
 62
     7
370
    30
100
AcDbLine
 10
171.204545
 20
148.193182
 30
0.0
 11
169.118182
 21
149.85
 31
0.0
  0
ENDBLK
  5
202
330
200
100
AcDbEntity
  8
0
100
AcDbBlockEnd
  0
BLOCK
  5
20B
330
20A
100
AcDbEntity
  8
0
100
AcDbBlockBegin
  2
G16
 70
     0
 10
0.0
 20
0.0
 30
0.0
  3
G16
  1

  0
LINE
  5
20D
330
20A
100
AcDbEntity
  8
100
  6
Continuous
 62
     7
370
    30
100
AcDbLine
 10
170.928409
 20
146.781818
 30
0.0
 11
168.044318
 21
149.604545
 31
0.0
  0
LINE
  5
20E
330
20A
100
AcDbEntity
  8
100
  6
Continuous
 62
     7
370
    30
100
AcDbLine
 10
168.044318
 20
149.604545
 30
0.0
 11
163.196591
 21
152.181818
 31
0.0
  0
LINE
  5
20F
330
20A
100
AcDbEntity
  8
100
  6
Continuous
 62
     7
370
    30
100
AcDbLine
 10
163.196591
 20
152.181818
 30
0.0
 11
157.919318
 21
154.145455
 31
0.0
  0
LINE
  5
210
330
20A
100
AcDbEntity
  8
100
  6
Continuous
 62
     7
370
    30
100
AcDbLine
 10
157.919318
 20
154.145455
 30
0.0
 11
149.880682
 21
156.109091
 31
0.0
  0
LINE
  5
211
330
20A
100
AcDbEntity
  8
100
  6
Continuous
 62
     7
370
    30
100
AcDbLine
 10
149.880682
 20
156.109091
 30
0.0
 11
141.4125
 21
157.704545
 31
0.0
  0
LINE
  5
212
330
20A
100
AcDbEntity
  8
100
  6
Continuous
 62
     7
370
    30
100
AcDbLine
 10
141.4125
 20
157.704545
 30
0.0
 11
134.294318
 21
158.870455
 31
0.0
  0
LINE
  5
213
330
20A
100
AcDbEntity
  8
100
  6
Continuous
 62
     7
370
    30
100
AcDbLine
 10
134.294318
 20
158.870455
 30
0.0
 11
126.5625
 21
159.238636
 31
0.0
  0
LINE
  5
214
330
20A
100
AcDbEntity
  8
100
  6
Continuous
 62
     7
370
    30
100
AcDbLine
 10
126.5625
 20
159.238636
 30
0.0
 11
117.235227
 21
159.729545
 31
0.0
  0
ENDBLK
  5
20C
330
20A
100
AcDbEntity
  8
0
100
AcDbBlockEnd
  0
BLOCK
  5
217
330
216
100
AcDbEntity
  8
0
100
AcDbBlockBegin
  2
G17
 70
     0
 10
0.0
 20
0.0
 30
0.0
  3
G17
  1

  0
LINE
  5
219
330
216
100
AcDbEntity
  8
100
  6
Continuous
 62
     7
370
    30
100
AcDbLine
 10
113.921591
 20
159.790909
 30
0.0
 11
106.373864
 21
160.036364
 31
0.0
  0
LINE
  5
21A
330
216
100
AcDbEntity
  8
100
  6
Continuous
 62
     7
370
    30
100
AcDbLine
 10
106.373864
 20
160.036364
 30
0.0
 11
96.617045
 21
159.913636
 31
0.0
  0
LINE
  5
21B
330
216
100
AcDbEntity
  8
100
  6
Continuous
 62
     7
370
    30
100
AcDbLine
 10
96.617045
 20
159.913636
 30
0.0
 11
88.639773
 21
159.422727
 31
0.0
  0
LINE
  5
21C
330
216
100
AcDbEntity
  8
100
  6
Continuous
 62
     7
370
    30
100
AcDbLine
 10
88.639773
 20
159.422727
 30
0.0
 11
80.785227
 21
158.993182
 31
0.0
  0
ENDBLK
  5
218
330
216
100
AcDbEntity
  8
0
100
AcDbBlockEnd
  0
BLOCK
  5
21F
330
21E
100
AcDbEntity
  8
0
100
AcDbBlockBegin
  2
G18
 70
     0
 10
0.0
 20
0.0
 30
0.0
  3
G18
  1

  0
LINE
  5
221
330
21E
100
AcDbEntity
  8
100
  6
Continuous
 62
     7
370
    30
100
AcDbLine
 10
53.325
 20
138.129545
 30
0.0
 11
52.3125
 21
139.295455
 31
0.0
  0
LINE
  5
222
330
21E
100
AcDbEntity
  8
100
  6
Continuous
 62
     7
370
    30
100
AcDbLine
 10
52.3125
 20
139.295455
 30
0.0
 11
52.005682
 21
140.952273
 31
0.0
  0
LINE
  5
223
330
21E
100
AcDbEntity
  8
100
  6
Continuous
 62
     7
370
    30
100
AcDbLine
 10
52.005682
 20
140.952273
 30
0.0
 11
52.097727
 21
142.823864
 31
0.0
  0
LINE
  5
224
330
21E
100
AcDbEntity
  8
100
  6
Continuous
 62
     7
370
    30
100
AcDbLine
 10
52.097727
 20
142.823864
 30
0.0
 11
53.140909
 21
144.419318
 31
0.0
  0
LINE
  5
225
330
21E
100
AcDbEntity
  8
100
  6
Continuous
 62
     7
370
    30
100
AcDbLine
 10
53.140909
 20
144.419318
 30
0.0
 11
54.613636
 21
146.014773
 31
0.0
  0
LINE
  5
226
330
21E
100
AcDbEntity
  8
100
  6
Continuous
 62
     7
370
    30
100
AcDbLine
 10
54.613636
 20
146.014773
 30
0.0
 11
58.05
 21
148.009091
 31
0.0
  0
LINE
  5
227
330
21E
100
AcDbEntity
  8
100
  6
Continuous
 62
     7
370
    30
100
AcDbLine
 10
58.05
 20
148.009091
 30
0.0
 11
62.468182
 21
150.064773
 31
0.0
  0
LINE
  5
228
330
21E
100
AcDbEntity
  8
100
  6
Continuous
 62
     7
370
    30
100
AcDbLine
 10
62.468182
 20
150.064773
 30
0.0
 11
65.873864
 21
151.445455
 31
0.0
  0
LINE
  5
229
330
21E
100
AcDbEntity
  8
100
  6
Continuous
 62
     7
370
    30
100
AcDbLine
 10
65.873864
 20
151.445455
 30
0.0
 11
70.414773
 21
152.672727
 31
0.0
  0
LINE
  5
22A
330
21E
100
AcDbEntity
  8
100
  6
Continuous
 62
     7
370
    30
100
AcDbLine
 10
70.414773
 20
152.672727
 30
0.0
 11
74.802273
 21
153.623864
 31
0.0
  0
LINE
  5
22B
330
21E
100
AcDbEntity
  8
100
  6
Continuous
 62
     7
370
    30
100
AcDbLine
 10
74.802273
 20
153.623864
 30
0.0
 11
80.601136
 21
154.759091
 31
0.0
  0
LINE
  5
22C
330
21E
100
AcDbEntity
  8
100
  6
Continuous
 62
     7
370
    30
100
AcDbLine
 10
80.601136
 20
154.759091
 30
0.0
 11
86.093182
 21
155.434091
 31
0.0
  0
LINE
  5
22D
330
21E
100
AcDbEntity
  8
100
  6
Continuous
 62
     7
370
    30
100
AcDbLine
 10
86.093182
 20
155.434091
 30
0.0
 11
91.431818
 21
155.802273
 31
0.0
  0
LINE
  5
22E
330
21E
100
AcDbEntity
  8
100
  6
Continuous
 62
     7
370
    30
100
AcDbLine
 10
91.431818
 20
155.802273
 30
0.0
 11
95.727273
 21
155.955682
 31
0.0
  0
LINE
  5
22F
330
21E
100
AcDbEntity
  8
100
  6
Continuous
 62
     7
370
    30
100
AcDbLine
 10
95.727273
 20
155.955682
 30
0.0
 11
96.371591
 21
155.955682
 31
0.0
  0
ENDBLK
  5
220
330
21E
100
AcDbEntity
  8
0
100
AcDbBlockEnd
  0
BLOCK
  5
232
330
231
100
AcDbEntity
  8
0
100
AcDbBlockBegin
  2
G19
 70
     0
 10
0.0
 20
0.0
 30
0.0
  3
G19
  1

  0
LINE
  5
234
330
231
100
AcDbEntity
  8
100
  6
Continuous
 62
     7
370
    30
100
AcDbLine
 10
101.863636
 20
156.047727
 30
0.0
 11
106.588636
 21
156.078409
 31
0.0
  0
LINE
  5
235
330
231
100
AcDbEntity
  8
100
  6
Continuous
 62
     7
370
    30
100
AcDbLine
 10
106.588636
 20
156.078409
 30
0.0
 11
114.259091
 21
156.2625
 31
0.0
  0
LINE
  5
236
330
231
100
AcDbEntity
  8
100
  6
Continuous
 62
     7
370
    30
100
AcDbLine
 10
114.259091
 20
156.2625
 30
0.0
 11
120.947727
 21
156.078409
 31
0.0
  0
LINE
  5
237
330
231
100
AcDbEntity
  8
100
  6
Continuous
 62
     7
370
    30
100
AcDbLine
 10
120.947727
 20
156.078409
 30
0.0
 11
128.280682
 21
155.832955
 31
0.0
  0
LINE
  5
238
330
231
100
AcDbEntity
  8
100
  6
Continuous
 62
     7
370
    30
100
AcDbLine
 10
128.280682
 20
155.832955
 30
0.0
 11
132.392045
 21
155.679545
 31
0.0
  0
LINE
  5
239
330
231
100
AcDbEntity
  8
100
  6
Continuous
 62
     7
370
    30
100
AcDbLine
 10
132.392045
 20
155.679545
 30
0.0
 11
137.393182
 21
154.820455
 31
0.0
  0
LINE
  5
23A
330
231
100
AcDbEntity
  8
100
  6
Continuous
 62
     7
370
    30
100
AcDbLine
 10
137.393182
 20
154.820455
 30
0.0
 11
143.406818
 21
153.746591
 31
0.0
  0
LINE
  5
23B
330
231
100
AcDbEntity
  8
100
  6
Continuous
 62
     7
370
    30
100
AcDbLine
 10
143.406818
 20
153.746591
 30
0.0
 11
148.929545
 21
152.335227
 31
0.0
  0
LINE
  5
23C
330
231
100
AcDbEntity
  8
100
  6
Continuous
 62
     7
370
    30
100
AcDbLine
 10
148.929545
 20
152.335227
 30
0.0
 11
153.930682
 21
150.678409
 31
0.0
  0
LINE
  5
23D
330
231
100
AcDbEntity
  8
100
  6
Continuous
 62
     7
370
    30
100
AcDbLine
 10
153.930682
 20
150.678409
 30
0.0
 11
157.6125
 21
149.052273
 31
0.0
  0
LINE
  5
23E
330
231
100
AcDbEntity
  8
100
  6
Continuous
 62
     7
370
    30
100
AcDbLine
 10
157.6125
 20
149.052273
 30
0.0
 11
160.527273
 21
146.935227
 31
0.0
  0
LINE
  5
23F
330
231
100
AcDbEntity
  8
100
  6
Continuous
 62
     7
370
    30
100
AcDbLine
 10
160.527273
 20
146.935227
 30
0.0
 11
162.030682
 21
145.523864
 31
0.0
  0
LINE
  5
240
330
231
100
AcDbEntity
  8
100
  6
Continuous
 62
     7
370
    30
100
AcDbLine
 10
162.030682
 20
145.523864
 30
0.0
 11
162.889773
 21
144.081818
 31
0.0
  0
LINE
  5
241
330
231
100
AcDbEntity
  8
100
  6
Continuous
 62
     7
370
    30
100
AcDbLine
 10
162.889773
 20
144.081818
 30
0.0
 11
163.196591
 21
142.670455
 31
0.0
  0
LINE
  5
242
330
231
100
AcDbEntity
  8
100
  6
Continuous
 62
     7
370
    30
100
AcDbLine
 10
163.196591
 20
142.670455
 30
0.0
 11
163.104545
 21
141.320455
 31
0.0
  0
LINE
  5
243
330
231
100
AcDbEntity
  8
100
  6
Continuous
 62
     7
370
    30
100
AcDbLine
 10
163.104545
 20
141.320455
 30
0.0
 11
162.214773
 21
139.479545
 31
0.0
  0
LINE
  5
244
330
231
100
AcDbEntity
  8
100
  6
Continuous
 62
     7
370
    30
100
AcDbLine
 10
162.214773
 20
139.479545
 30
0.0
 11
160.956818
 21
138.098864
 31
0.0
  0
LINE
  5
245
330
231
100
AcDbEntity
  8
100
  6
Continuous
 62
     7
370
    30
100
AcDbLine
 10
160.956818
 20
138.098864
 30
0.0
 11
159.422727
 21
137.025
 31
0.0
  0
ENDBLK
  5
233
330
231
100
AcDbEntity
  8
0
100
AcDbBlockEnd
  0
BLOCK
  5
248
330
247
100
AcDbEntity
  8
0
100
AcDbBlockBegin
  2
G20
 70
     0
 10
0.0
 20
0.0
 30
0.0
  3
G20
  1

  0
LINE
  5
24A
330
247
100
AcDbEntity
  8
100
  6
Continuous
 62
     7
370
    30
100
AcDbLine
 10
46.881818
 20
136.043182
 30
0.0
 11
46.943182
 21
129.109091
 31
0.0
  0
LINE
  5
24B
330
247
100
AcDbEntity
  8
100
  6
Continuous
 62
     7
370
    30
100
AcDbLine
 10
46.943182
 20
129.109091
 30
0.0
 11
46.206818
 21
101.863636
 31
0.0
  0
LINE
  5
24C
330
247
100
AcDbEntity
  8
100
  6
Continuous
 62
     7
370
    30
100
AcDbLine
 10
46.206818
 20
101.863636
 30
0.0
 11
46.206818
 21
75.231818
 31
0.0
  0
LINE
  5
24D
330
247
100
AcDbEntity
  8
100
  6
Continuous
 62
     7
370
    30
100
AcDbLine
 10
46.206818
 20
75.231818
 30
0.0
 11
45.685227
 21
74.863636
 31
0.0
  0
LINE
  5
24E
330
247
100
AcDbEntity
  8
100
  6
Continuous
 62
     7
370
    30
100
AcDbLine
 10
45.685227
 20
74.863636
 30
0.0
 11
43.230682
 21
73.575
 31
0.0
  0
LINE
  5
24F
330
247
100
AcDbEntity
  8
100
  6
Continuous
 62
     7
370
    30
100
AcDbLine
 10
43.230682
 20
73.575
 30
0.0
 11
41.144318
 21
72.040909
 31
0.0
  0
LINE
  5
250
330
247
100
AcDbEntity
  8
100
  6
Continuous
 62
     7
370
    30
100
AcDbLine
 10
41.144318
 20
72.040909
 30
0.0
 11
41.082955
 21
70.077273
 31
0.0
  0
LINE
  5
251
330
247
100
AcDbEntity
  8
100
  6
Continuous
 62
     7
370
    30
100
AcDbLine
 10
41.082955
 20
70.077273
 30
0.0
 11
41.635227
 21
69.095455
 31
0.0
  0
LINE
  5
252
330
247
100
AcDbEntity
  8
100
  6
Continuous
 62
     7
370
    30
100
AcDbLine
 10
41.635227
 20
69.095455
 30
0.0
 11
43.5375
 21
67.5
 31
0.0
  0
LINE
  5
253
330
247
100
AcDbEntity
  8
100
  6
Continuous
 62
     7
370
    30
100
AcDbLine
 10
43.5375
 20
67.5
 30
0.0
 11
45.501136
 21
66.334091
 31
0.0
  0
ENDBLK
  5
249
330
247
100
AcDbEntity
  8
0
100
AcDbBlockEnd
  0
BLOCK
  5
256
330
255
100
AcDbEntity
  8
0
100
AcDbBlockBegin
  2
G21
 70
     0
 10
0.0
 20
0.0
 30
0.0
  3
G21
  1

  0
LINE
  5
258
330
255
100
AcDbEntity
  8
100
  6
Continuous
 62
     7
370
    30
100
AcDbLine
 10
50.502273
 20
76.704545
 30
0.0
 11
50.625
 21
98.672727
 31
0.0
  0
LINE
  5
259
330
255
100
AcDbEntity
  8
100
  6
Continuous
 62
     7
370
    30
100
AcDbLine
 10
50.625
 20
98.672727
 30
0.0
 11
51.238636
 21
116.590909
 31
0.0
  0
LINE
  5
25A
330
255
100
AcDbEntity
  8
100
  6
Continuous
 62
     7
370
    30
100
AcDbLine
 10
51.238636
 20
116.590909
 30
0.0
 11
51.729545
 21
135.122727
 31
0.0
  0
LINE
  5
25B
330
255
100
AcDbEntity
  8
100
  6
Continuous
 62
     7
370
    30
100
AcDbLine
 10
51.729545
 20
135.122727
 30
0.0
 11
51.852273
 21
136.718182
 31
0.0
  0
LINE
  5
25C
330
255
100
AcDbEntity
  8
100
  6
Continuous
 62
     7
370
    30
100
AcDbLine
 10
51.852273
 20
136.718182
 30
0.0
 11
49.735227
 21
137.515909
 31
0.0
  0
LINE
  5
25D
330
255
100
AcDbEntity
  8
100
  6
Continuous
 62
     7
370
    30
100
AcDbLine
 10
49.735227
 20
137.515909
 30
0.0
 11
48.538636
 21
137.331818
 31
0.0
  0
LINE
  5
25E
330
255
100
AcDbEntity
  8
100
  6
Continuous
 62
     7
370
    30
100
AcDbLine
 10
48.538636
 20
137.331818
 30
0.0
 11
47.556818
 21
136.748864
 31
0.0
  0
LINE
  5
25F
330
255
100
AcDbEntity
  8
100
  6
Continuous
 62
     7
370
    30
100
AcDbLine
 10
47.556818
 20
136.748864
 30
0.0
 11
46.881818
 21
136.043182
 31
0.0
  0
ENDBLK
  5
257
330
255
100
AcDbEntity
  8
0
100
AcDbBlockEnd
  0
BLOCK
  5
262
330
261
100
AcDbEntity
  8
0
100
AcDbBlockBegin
  2
G22
 70
     0
 10
0.0
 20
0.0
 30
0.0
  3
G22
  1

  0
LINE
  5
264
330
261
100
AcDbEntity
  8
100
  6
Continuous
 62
     7
370
    30
100
AcDbLine
 10
95.727273
 20
155.955682
 30
0.0
 11
96.218182
 21
141.167045
 31
0.0
  0
LINE
  5
265
330
261
100
AcDbEntity
  8
100
  6
Continuous
 62
     7
370
    30
100
AcDbLine
 10
96.218182
 20
141.167045
 30
0.0
 11
96.586364
 21
122.880682
 31
0.0
  0
LINE
  5
266
330
261
100
AcDbEntity
  8
100
  6
Continuous
 62
     7
370
    30
100
AcDbLine
 10
96.586364
 20
122.880682
 30
0.0
 11
96.954545
 21
108.767045
 31
0.0
  0
LINE
  5
267
330
261
100
AcDbEntity
  8
100
  6
Continuous
 62
     7
370
    30
100
AcDbLine
 10
96.954545
 20
108.767045
 30
0.0
 11
96.831818
 21
90.235227
 31
0.0
  0
LINE
  5
268
330
261
100
AcDbEntity
  8
100
  6
Continuous
 62
     7
370
    30
100
AcDbLine
 10
96.831818
 20
90.235227
 30
0.0
 11
96.954545
 21
81.644318
 31
0.0
  0
LINE
  5
269
330
261
100
AcDbEntity
  8
100
  6
Continuous
 62
     7
370
    30
100
AcDbLine
 10
96.954545
 20
81.644318
 30
0.0
 11
97.169318
 21
80.539773
 31
0.0
  0
LINE
  5
26A
330
261
100
AcDbEntity
  8
100
  6
Continuous
 62
     7
370
    30
100
AcDbLine
 10
97.169318
 20
80.539773
 30
0.0
 11
92.014773
 21
80.355682
 31
0.0
  0
LINE
  5
26B
330
261
100
AcDbEntity
  8
100
  6
Continuous
 62
     7
370
    30
100
AcDbLine
 10
92.014773
 20
80.355682
 30
0.0
 11
84.804545
 21
80.110227
 31
0.0
  0
LINE
  5
26C
330
261
100
AcDbEntity
  8
100
  6
Continuous
 62
     7
370
    30
100
AcDbLine
 10
84.804545
 20
80.110227
 30
0.0
 11
79.435227
 21
79.803409
 31
0.0
  0
LINE
  5
26D
330
261
100
AcDbEntity
  8
100
  6
Continuous
 62
     7
370
    30
100
AcDbLine
 10
79.435227
 20
79.803409
 30
0.0
 11
73.973864
 21
79.527273
 31
0.0
  0
LINE
  5
26E
330
261
100
AcDbEntity
  8
100
  6
Continuous
 62
     7
370
    30
100
AcDbLine
 10
73.973864
 20
79.527273
 30
0.0
 11
68.727273
 21
79.373864
 31
0.0
  0
LINE
  5
26F
330
261
100
AcDbEntity
  8
100
  6
Continuous
 62
     7
370
    30
100
AcDbLine
 10
68.727273
 20
79.373864
 30
0.0
 11
64.032955
 21
78.913636
 31
0.0
  0
LINE
  5
270
330
261
100
AcDbEntity
  8
100
  6
Continuous
 62
     7
370
    30
100
AcDbLine
 10
64.032955
 20
78.913636
 30
0.0
 11
58.878409
 21
78.146591
 31
0.0
  0
LINE
  5
271
330
261
100
AcDbEntity
  8
100
  6
Continuous
 62
     7
370
    30
100
AcDbLine
 10
58.878409
 20
78.146591
 30
0.0
 11
55.380682
 21
77.594318
 31
0.0
  0
LINE
  5
272
330
261
100
AcDbEntity
  8
100
  6
Continuous
 62
     7
370
    30
100
AcDbLine
 10
55.380682
 20
77.594318
 30
0.0
 11
53.325
 21
77.2875
 31
0.0
  0
LINE
  5
273
330
261
100
AcDbEntity
  8
100
  6
Continuous
 62
     7
370
    30
100
AcDbLine
 10
53.325
 20
77.2875
 30
0.0
 11
50.502273
 21
76.704545
 31
0.0
  0
LINE
  5
274
330
261
100
AcDbEntity
  8
100
  6
Continuous
 62
     7
370
    30
100
AcDbLine
 10
50.502273
 20
76.704545
 30
0.0
 11
46.206818
 21
75.231818
 31
0.0
  0
ENDBLK
  5
263
330
261
100
AcDbEntity
  8
0
100
AcDbBlockEnd
  0
BLOCK
  5
277
330
276
100
AcDbEntity
  8
0
100
AcDbBlockBegin
  2
G23
 70
     0
 10
0.0
 20
0.0
 30
0.0
  3
G23
  1

  0
LINE
  5
279
330
276
100
AcDbEntity
  8
100
  6
Continuous
 62
     7
370
    30
100
AcDbLine
 10
101.863636
 20
82.380682
 30
0.0
 11
101.740909
 21
107.6625
 31
0.0
  0
LINE
  5
27A
330
276
100
AcDbEntity
  8
100
  6
Continuous
 62
     7
370
    30
100
AcDbLine
 10
101.740909
 20
107.6625
 30
0.0
 11
101.863636
 21
126.194318
 31
0.0
  0
LINE
  5
27B
330
276
100
AcDbEntity
  8
100
  6
Continuous
 62
     7
370
    30
100
AcDbLine
 10
101.863636
 20
126.194318
 30
0.0
 11
101.740909
 21
144.971591
 31
0.0
  0
LINE
  5
27C
330
276
100
AcDbEntity
  8
100
  6
Continuous
 62
     7
370
    30
100
AcDbLine
 10
101.740909
 20
144.971591
 30
0.0
 11
101.863636
 21
156.047727
 31
0.0
  0
LINE
  5
27D
330
276
100
AcDbEntity
  8
100
  6
Continuous
 62
     7
370
    30
100
AcDbLine
 10
101.863636
 20
156.047727
 30
0.0
 11
100.9125
 21
157.305682
 31
0.0
  0
LINE
  5
27E
330
276
100
AcDbEntity
  8
100
  6
Continuous
 62
     7
370
    30
100
AcDbLine
 10
100.9125
 20
157.305682
 30
0.0
 11
100.145455
 21
157.919318
 31
0.0
  0
LINE
  5
27F
330
276
100
AcDbEntity
  8
100
  6
Continuous
 62
     7
370
    30
100
AcDbLine
 10
100.145455
 20
157.919318
 30
0.0
 11
98.948864
 21
158.226136
 31
0.0
  0
LINE
  5
280
330
276
100
AcDbEntity
  8
100
  6
Continuous
 62
     7
370
    30
100
AcDbLine
 10
98.948864
 20
158.226136
 30
0.0
 11
97.322727
 21
157.857955
 31
0.0
  0
LINE
  5
281
330
276
100
AcDbEntity
  8
100
  6
Continuous
 62
     7
370
    30
100
AcDbLine
 10
97.322727
 20
157.857955
 30
0.0
 11
96.494318
 21
156.968182
 31
0.0
  0
LINE
  5
282
330
276
100
AcDbEntity
  8
100
  6
Continuous
 62
     7
370
    30
100
AcDbLine
 10
96.494318
 20
156.968182
 30
0.0
 11
95.727273
 21
155.955682
 31
0.0
  0
ENDBLK
  5
278
330
276
100
AcDbEntity
  8
0
100
AcDbBlockEnd
  0
BLOCK
  5
285
330
284
100
AcDbEntity
  8
0
100
AcDbBlockBegin
  2
G24
 70
     0
 10
0.0
 20
0.0
 30
0.0
  3
G24
  1

  0
LINE
  5
287
330
284
100
AcDbEntity
  8
100
  6
Continuous
 62
     7
370
    30
100
AcDbLine
 10
165.190909
 20
141.565909
 30
0.0
 11
166.05
 21
124.384091
 31
0.0
  0
LINE
  5
288
330
284
100
AcDbEntity
  8
100
  6
Continuous
 62
     7
370
    30
100
AcDbLine
 10
166.05
 20
124.384091
 30
0.0
 11
166.663636
 21
109.902273
 31
0.0
  0
LINE
  5
289
330
284
100
AcDbEntity
  8
100
  6
Continuous
 62
     7
370
    30
100
AcDbLine
 10
166.663636
 20
109.902273
 30
0.0
 11
167.277273
 21
91.738636
 31
0.0
  0
LINE
  5
28A
330
284
100
AcDbEntity
  8
100
  6
Continuous
 62
     7
370
    30
100
AcDbLine
 10
167.277273
 20
91.738636
 30
0.0
 11
167.4
 21
76.888636
 31
0.0
  0
LINE
  5
28B
330
284
100
AcDbEntity
  8
100
  6
Continuous
 62
     7
370
    30
100
AcDbLine
 10
167.4
 20
76.888636
 30
0.0
 11
161.938636
 21
78.207955
 31
0.0
  0
LINE
  5
28C
330
284
100
AcDbEntity
  8
100
  6
Continuous
 62
     7
370
    30
100
AcDbLine
 10
161.938636
 20
78.207955
 30
0.0
 11
156.354545
 21
78.760227
 31
0.0
  0
LINE
  5
28D
330
284
100
AcDbEntity
  8
100
  6
Continuous
 62
     7
370
    30
100
AcDbLine
 10
156.354545
 20
78.760227
 30
0.0
 11
146.413636
 21
79.926136
 31
0.0
  0
LINE
  5
28E
330
284
100
AcDbEntity
  8
100
  6
Continuous
 62
     7
370
    30
100
AcDbLine
 10
146.413636
 20
79.926136
 30
0.0
 11
135.061364
 21
80.723864
 31
0.0
  0
LINE
  5
28F
330
284
100
AcDbEntity
  8
100
  6
Continuous
 62
     7
370
    30
100
AcDbLine
 10
135.061364
 20
80.723864
 30
0.0
 11
126.470455
 21
80.601136
 31
0.0
  0
LINE
  5
290
330
284
100
AcDbEntity
  8
100
  6
Continuous
 62
     7
370
    30
100
AcDbLine
 10
126.470455
 20
80.601136
 30
0.0
 11
118.8
 21
80.6625
 31
0.0
  0
LINE
  5
291
330
284
100
AcDbEntity
  8
100
  6
Continuous
 62
     7
370
    30
100
AcDbLine
 10
118.8
 20
80.6625
 30
0.0
 11
110.945455
 21
80.785227
 31
0.0
  0
LINE
  5
292
330
284
100
AcDbEntity
  8
100
  6
Continuous
 62
     7
370
    30
100
AcDbLine
 10
110.945455
 20
80.785227
 30
0.0
 11
105.3
 21
80.815909
 31
0.0
  0
LINE
  5
293
330
284
100
AcDbEntity
  8
100
  6
Continuous
 62
     7
370
    30
100
AcDbLine
 10
105.3
 20
80.815909
 30
0.0
 11
97.169318
 21
80.539773
 31
0.0
  0
ENDBLK
  5
286
330
284
100
AcDbEntity
  8
0
100
AcDbBlockEnd
  0
BLOCK
  5
296
330
295
100
AcDbEntity
  8
0
100
AcDbBlockBegin
  2
G25
 70
     0
 10
0.0
 20
0.0
 30
0.0
  3
G25
  1

  0
LINE
  5
298
330
295
100
AcDbEntity
  8
100
  6
Continuous
 62
     7
370
    30
100
AcDbLine
 10
171.940909
 20
75.415909
 30
0.0
 11
171.327273
 21
101.188636
 31
0.0
  0
LINE
  5
299
330
295
100
AcDbEntity
  8
100
  6
Continuous
 62
     7
370
    30
100
AcDbLine
 10
171.327273
 20
101.188636
 30
0.0
 11
170.345455
 21
125.488636
 31
0.0
  0
LINE
  5
29A
330
295
100
AcDbEntity
  8
100
  6
Continuous
 62
     7
370
    30
100
AcDbLine
 10
170.345455
 20
125.488636
 30
0.0
 11
170.222727
 21
141.320455
 31
0.0
  0
LINE
  5
29B
330
295
100
AcDbEntity
  8
100
  6
Continuous
 62
     7
370
    30
100
AcDbLine
 10
170.222727
 20
141.320455
 30
0.0
 11
169.915909
 21
142.148864
 31
0.0
  0
LINE
  5
29C
330
295
100
AcDbEntity
  8
100
  6
Continuous
 62
     7
370
    30
100
AcDbLine
 10
169.915909
 20
142.148864
 30
0.0
 11
169.271591
 21
142.517045
 31
0.0
  0
LINE
  5
29D
330
295
100
AcDbEntity
  8
100
  6
Continuous
 62
     7
370
    30
100
AcDbLine
 10
169.271591
 20
142.517045
 30
0.0
 11
168.228409
 21
142.885227
 31
0.0
  0
LINE
  5
29E
330
295
100
AcDbEntity
  8
100
  6
Continuous
 62
     7
370
    30
100
AcDbLine
 10
168.228409
 20
142.885227
 30
0.0
 11
167.246591
 21
142.854545
 31
0.0
  0
LINE
  5
29F
330
295
100
AcDbEntity
  8
100
  6
Continuous
 62
     7
370
    30
100
AcDbLine
 10
167.246591
 20
142.854545
 30
0.0
 11
166.080682
 21
142.486364
 31
0.0
  0
LINE
  5
2A0
330
295
100
AcDbEntity
  8
100
  6
Continuous
 62
     7
370
    30
100
AcDbLine
 10
166.080682
 20
142.486364
 30
0.0
 11
165.190909
 21
141.565909
 31
0.0
  0
ENDBLK
  5
297
330
295
100
AcDbEntity
  8
0
100
AcDbBlockEnd
  0
BLOCK
  5
2A3
330
2A2
100
AcDbEntity
  8
0
100
AcDbBlockBegin
  2
G26
 70
     0
 10
0.0
 20
0.0
 30
0.0
  3
G26
  1

  0
LINE
  5
2A5
330
2A2
100
AcDbEntity
  8
100
  6
Continuous
 62
     7
370
    30
100
AcDbLine
 10
160.527273
 20
146.935227
 30
0.0
 11
159.392045
 21
143.652273
 31
0.0
  0
LINE
  5
2A6
330
2A2
100
AcDbEntity
  8
100
  6
Continuous
 62
     7
370
    30
100
AcDbLine
 10
159.392045
 20
143.652273
 30
0.0
 11
159.760227
 21
118.738636
 31
0.0
  0
LINE
  5
2A7
330
2A2
100
AcDbEntity
  8
100
  6
Continuous
 62
     7
370
    30
100
AcDbLine
 10
159.760227
 20
118.738636
 30
0.0
 11
160.496591
 21
94.438636
 31
0.0
  0
LINE
  5
2A8
330
2A2
100
AcDbEntity
  8
100
  6
Continuous
 62
     7
370
    30
100
AcDbLine
 10
160.496591
 20
94.438636
 30
0.0
 11
160.619318
 21
78.361364
 31
0.0
  0
ENDBLK
  5
2A4
330
2A2
100
AcDbEntity
  8
0
100
AcDbBlockEnd
  0
BLOCK
  5
2AB
330
2AA
100
AcDbEntity
  8
0
100
AcDbBlockBegin
  2
G27
 70
     0
 10
0.0
 20
0.0
 30
0.0
  3
G27
  1

  0
LINE
  5
2AD
330
2AA
100
AcDbEntity
  8
100
  6
Continuous
 62
     7
370
    30
100
AcDbLine
 10
53.140909
 20
144.419318
 30
0.0
 11
53.478409
 21
129.906818
 31
0.0
  0
LINE
  5
2AE
330
2AA
100
AcDbEntity
  8
100
  6
Continuous
 62
     7
370
    30
100
AcDbLine
 10
53.478409
 20
129.906818
 30
0.0
 11
53.232955
 21
117.143182
 31
0.0
  0
LINE
  5
2AF
330
2AA
100
AcDbEntity
  8
100
  6
Continuous
 62
     7
370
    30
100
AcDbLine
 10
53.232955
 20
117.143182
 30
0.0
 11
53.232955
 21
93.456818
 31
0.0
  0
LINE
  5
2B0
330
2AA
100
AcDbEntity
  8
100
  6
Continuous
 62
     7
370
    30
100
AcDbLine
 10
53.232955
 20
93.456818
 30
0.0
 11
53.355682
 21
77.625
 31
0.0
  0
ENDBLK
  5
2AC
330
2AA
100
AcDbEntity
  8
0
100
AcDbBlockEnd
  0
BLOCK
  5
2B3
330
2B2
100
AcDbEntity
  8
0
100
AcDbBlockBegin
  2
G28
 70
     0
 10
0.0
 20
0.0
 30
0.0
  3
G28
  1

  0
LINE
  5
2B5
330
2B2
100
AcDbEntity
  8
100
  6
Continuous
 62
     7
370
    30
100
AcDbLine
 10
45.501136
 20
68.665909
 30
0.0
 11
45.501136
 21
54.797727
 31
0.0
  0
LINE
  5
2B6
330
2B2
100
AcDbEntity
  8
100
  6
Continuous
 62
     7
370
    30
100
AcDbLine
 10
45.501136
 20
54.797727
 30
0.0
 11
46.482955
 21
47.188636
 31
0.0
  0
LINE
  5
2B7
330
2B2
100
AcDbEntity
  8
100
  6
Continuous
 62
     7
370
    30
100
AcDbLine
 10
46.482955
 20
47.188636
 30
0.0
 11
48.446591
 21
39.947727
 31
0.0
  0
LINE
  5
2B8
330
2B2
100
AcDbEntity
  8
100
  6
Continuous
 62
     7
370
    30
100
AcDbLine
 10
48.446591
 20
39.947727
 30
0.0
 11
50.655682
 21
32.584091
 31
0.0
  0
LINE
  5
2B9
330
2B2
100
AcDbEntity
  8
100
  6
Continuous
 62
     7
370
    30
100
AcDbLine
 10
50.655682
 20
32.584091
 30
0.0
 11
54.582955
 21
23.993182
 31
0.0
  0
LINE
  5
2BA
330
2B2
100
AcDbEntity
  8
100
  6
Continuous
 62
     7
370
    30
100
AcDbLine
 10
54.582955
 20
23.993182
 30
0.0
 11
59.860227
 21
15.893182
 31
0.0
  0
LINE
  5
2BB
330
2B2
100
AcDbEntity
  8
100
  6
Continuous
 62
     7
370
    30
100
AcDbLine
 10
59.860227
 20
15.893182
 30
0.0
 11
64.523864
 21
10.615909
 31
0.0
  0
LINE
  5
2BC
330
2B2
100
AcDbEntity
  8
100
  6
Continuous
 62
     7
370
    30
100
AcDbLine
 10
64.523864
 20
10.615909
 30
0.0
 11
69.678409
 21
5.215909
 31
0.0
  0
LINE
  5
2BD
330
2B2
100
AcDbEntity
  8
100
  6
Continuous
 62
     7
370
    30
100
AcDbLine
 10
69.678409
 20
5.215909
 30
0.0
 11
73.789773
 21
1.963636
 31
0.0
  0
LINE
  5
2BE
330
2B2
100
AcDbEntity
  8
100
  6
Continuous
 62
     7
370
    30
100
AcDbLine
 10
73.789773
 20
1.963636
 30
0.0
 11
78.882955
 21
-1.227273
 31
0.0
  0
LINE
  5
2BF
330
2B2
100
AcDbEntity
  8
100
  6
Continuous
 62
     7
370
    30
100
AcDbLine
 10
78.882955
 20
-1.227273
 30
0.0
 11
83.117045
 21
-3.436364
 31
0.0
  0
LINE
  5
2C0
330
2B2
100
AcDbEntity
  8
100
  6
Continuous
 62
     7
370
    30
100
AcDbLine
 10
83.117045
 20
-3.436364
 30
0.0
 11
87.903409
 21
-5.645455
 31
0.0
  0
LINE
  5
2C1
330
2B2
100
AcDbEntity
  8
100
  6
Continuous
 62
     7
370
    30
100
AcDbLine
 10
87.903409
 20
-5.645455
 30
0.0
 11
93.610227
 21
-7.854545
 31
0.0
  0
LINE
  5
2C2
330
2B2
100
AcDbEntity
  8
100
  6
Continuous
 62
     7
370
    30
100
AcDbLine
 10
93.610227
 20
-7.854545
 30
0.0
 11
98.151136
 21
-8.897727
 31
0.0
  0
LINE
  5
2C3
330
2B2
100
AcDbEntity
  8
100
  6
Continuous
 62
     7
370
    30
100
AcDbLine
 10
98.151136
 20
-8.897727
 30
0.0
 11
102.201136
 21
-9.572727
 31
0.0
  0
LINE
  5
2C4
330
2B2
100
AcDbEntity
  8
100
  6
Continuous
 62
     7
370
    30
100
AcDbLine
 10
102.201136
 20
-9.572727
 30
0.0
 11
107.294318
 21
-9.756818
 31
0.0
  0
LINE
  5
2C5
330
2B2
100
AcDbEntity
  8
100
  6
Continuous
 62
     7
370
    30
100
AcDbLine
 10
107.294318
 20
-9.756818
 30
0.0
 11
110.792045
 21
-9.756818
 31
0.0
  0
LINE
  5
2C6
330
2B2
100
AcDbEntity
  8
100
  6
Continuous
 62
     7
370
    30
100
AcDbLine
 10
110.792045
 20
-9.756818
 30
0.0
 11
114.228409
 21
-9.265909
 31
0.0
  0
LINE
  5
2C7
330
2B2
100
AcDbEntity
  8
100
  6
Continuous
 62
     7
370
    30
100
AcDbLine
 10
114.228409
 20
-9.265909
 30
0.0
 11
118.707955
 21
-8.652273
 31
0.0
  0
LINE
  5
2C8
330
2B2
100
AcDbEntity
  8
100
  6
Continuous
 62
     7
370
    30
100
AcDbLine
 10
118.707955
 20
-8.652273
 30
0.0
 11
127.9125
 21
-6.075
 31
0.0
  0
LINE
  5
2C9
330
2B2
100
AcDbEntity
  8
100
  6
Continuous
 62
     7
370
    30
100
AcDbLine
 10
127.9125
 20
-6.075
 30
0.0
 11
134.723864
 21
-3.068182
 31
0.0
  0
LINE
  5
2CA
330
2B2
100
AcDbEntity
  8
100
  6
Continuous
 62
     7
370
    30
100
AcDbLine
 10
134.723864
 20
-3.068182
 30
0.0
 11
139.3875
 21
-0.552273
 31
0.0
  0
LINE
  5
2CB
330
2B2
100
AcDbEntity
  8
100
  6
Continuous
 62
     7
370
    30
100
AcDbLine
 10
139.3875
 20
-0.552273
 30
0.0
 11
144.7875
 21
3.252273
 31
0.0
  0
LINE
  5
2CC
330
2B2
100
AcDbEntity
  8
100
  6
Continuous
 62
     7
370
    30
100
AcDbLine
 10
144.7875
 20
3.252273
 30
0.0
 11
149.144318
 21
7.118182
 31
0.0
  0
LINE
  5
2CD
330
2B2
100
AcDbEntity
  8
100
  6
Continuous
 62
     7
370
    30
100
AcDbLine
 10
149.144318
 20
7.118182
 30
0.0
 11
153.255682
 21
11.597727
 31
0.0
  0
LINE
  5
2CE
330
2B2
100
AcDbEntity
  8
100
  6
Continuous
 62
     7
370
    30
100
AcDbLine
 10
153.255682
 20
11.597727
 30
0.0
 11
157.182955
 21
15.770455
 31
0.0
  0
LINE
  5
2CF
330
2B2
100
AcDbEntity
  8
100
  6
Continuous
 62
     7
370
    30
100
AcDbLine
 10
157.182955
 20
15.770455
 30
0.0
 11
162.092045
 21
22.704545
 31
0.0
  0
LINE
  5
2D0
330
2B2
100
AcDbEntity
  8
100
  6
Continuous
 62
     7
370
    30
100
AcDbLine
 10
162.092045
 20
22.704545
 30
0.0
 11
165.344318
 21
29.209091
 31
0.0
  0
LINE
  5
2D1
330
2B2
100
AcDbEntity
  8
100
  6
Continuous
 62
     7
370
    30
100
AcDbLine
 10
165.344318
 20
29.209091
 30
0.0
 11
167.798864
 21
34.609091
 31
0.0
  0
LINE
  5
2D2
330
2B2
100
AcDbEntity
  8
100
  6
Continuous
 62
     7
370
    30
100
AcDbLine
 10
167.798864
 20
34.609091
 30
0.0
 11
170.130682
 21
42.709091
 31
0.0
  0
LINE
  5
2D3
330
2B2
100
AcDbEntity
  8
100
  6
Continuous
 62
     7
370
    30
100
AcDbLine
 10
170.130682
 20
42.709091
 30
0.0
 11
171.480682
 21
49.704545
 31
0.0
  0
LINE
  5
2D4
330
2B2
100
AcDbEntity
  8
100
  6
Continuous
 62
     7
370
    30
100
AcDbLine
 10
171.480682
 20
49.704545
 30
0.0
 11
172.094318
 21
55.472727
 31
0.0
  0
LINE
  5
2D5
330
2B2
100
AcDbEntity
  8
100
  6
Continuous
 62
     7
370
    30
100
AcDbLine
 10
172.094318
 20
55.472727
 30
0.0
 11
171.910227
 21
67.377273
 31
0.0
  0
LINE
  5
2D6
330
2B2
100
AcDbEntity
  8
100
  6
Continuous
 62
     7
370
    30
100
AcDbLine
 10
171.910227
 20
67.377273
 30
0.0
 11
171.971591
 21
69.402273
 31
0.0
  0
LINE
  5
2D7
330
2B2
100
AcDbEntity
  8
100
  6
Continuous
 62
     7
370
    30
100
AcDbLine
 10
171.971591
 20
69.402273
 30
0.0
 11
171.388636
 21
70.292045
 31
0.0
  0
LINE
  5
2D8
330
2B2
100
AcDbEntity
  8
100
  6
Continuous
 62
     7
370
    30
100
AcDbLine
 10
171.388636
 20
70.292045
 30
0.0
 11
169.578409
 21
70.353409
 31
0.0
  0
LINE
  5
2D9
330
2B2
100
AcDbEntity
  8
100
  6
Continuous
 62
     7
370
    30
100
AcDbLine
 10
169.578409
 20
70.353409
 30
0.0
 11
168.167045
 21
70.322727
 31
0.0
  0
LINE
  5
2DA
330
2B2
100
AcDbEntity
  8
100
  6
Continuous
 62
     7
370
    30
100
AcDbLine
 10
168.167045
 20
70.322727
 30
0.0
 11
167.369318
 21
69.402273
 31
0.0
  0
LINE
  5
2DB
330
2B2
100
AcDbEntity
  8
100
  6
Continuous
 62
     7
370
    30
100
AcDbLine
 10
167.369318
 20
69.402273
 30
0.0
 11
167.246591
 21
67.438636
 31
0.0
  0
LINE
  5
2DC
330
2B2
100
AcDbEntity
  8
100
  6
Continuous
 62
     7
370
    30
100
AcDbLine
 10
167.246591
 20
67.438636
 30
0.0
 11
167.522727
 21
63.910227
 31
0.0
  0
LINE
  5
2DD
330
2B2
100
AcDbEntity
  8
100
  6
Continuous
 62
     7
370
    30
100
AcDbLine
 10
167.522727
 20
63.910227
 30
0.0
 11
167.4
 21
56.792045
 31
0.0
  0
LINE
  5
2DE
330
2B2
100
AcDbEntity
  8
100
  6
Continuous
 62
     7
370
    30
100
AcDbLine
 10
167.4
 20
56.792045
 30
0.0
 11
167.461364
 21
53.417045
 31
0.0
  0
LINE
  5
2DF
330
2B2
100
AcDbEntity
  8
100
  6
Continuous
 62
     7
370
    30
100
AcDbLine
 10
167.461364
 20
53.417045
 30
0.0
 11
166.970455
 21
49.428409
 31
0.0
  0
LINE
  5
2E0
330
2B2
100
AcDbEntity
  8
100
  6
Continuous
 62
     7
370
    30
100
AcDbLine
 10
166.970455
 20
49.428409
 30
0.0
 11
166.05
 21
44.703409
 31
0.0
  0
LINE
  5
2E1
330
2B2
100
AcDbEntity
  8
100
  6
Continuous
 62
     7
370
    30
100
AcDbLine
 10
166.05
 20
44.703409
 30
0.0
 11
164.7
 21
38.751136
 31
0.0
  0
LINE
  5
2E2
330
2B2
100
AcDbEntity
  8
100
  6
Continuous
 62
     7
370
    30
100
AcDbLine
 10
164.7
 20
38.751136
 30
0.0
 11
162.122727
 21
32.246591
 31
0.0
  0
LINE
  5
2E3
330
2B2
100
AcDbEntity
  8
100
  6
Continuous
 62
     7
370
    30
100
AcDbLine
 10
162.122727
 20
32.246591
 30
0.0
 11
159.913636
 21
27.460227
 31
0.0
  0
LINE
  5
2E4
330
2B2
100
AcDbEntity
  8
100
  6
Continuous
 62
     7
370
    30
100
AcDbLine
 10
159.913636
 20
27.460227
 30
0.0
 11
157.704545
 21
24.085227
 31
0.0
  0
LINE
  5
2E5
330
2B2
100
AcDbEntity
  8
100
  6
Continuous
 62
     7
370
    30
100
AcDbLine
 10
157.704545
 20
24.085227
 30
0.0
 11
155.372727
 21
20.280682
 31
0.0
  0
LINE
  5
2E6
330
2B2
100
AcDbEntity
  8
100
  6
Continuous
 62
     7
370
    30
100
AcDbLine
 10
155.372727
 20
20.280682
 30
0.0
 11
152.243182
 21
16.476136
 31
0.0
  0
LINE
  5
2E7
330
2B2
100
AcDbEntity
  8
100
  6
Continuous
 62
     7
370
    30
100
AcDbLine
 10
152.243182
 20
16.476136
 30
0.0
 11
149.788636
 21
13.960227
 31
0.0
  0
LINE
  5
2E8
330
2B2
100
AcDbEntity
  8
100
  6
Continuous
 62
     7
370
    30
100
AcDbLine
 10
149.788636
 20
13.960227
 30
0.0
 11
146.597727
 21
10.646591
 31
0.0
  0
LINE
  5
2E9
330
2B2
100
AcDbEntity
  8
100
  6
Continuous
 62
     7
370
    30
100
AcDbLine
 10
146.597727
 20
10.646591
 30
0.0
 11
143.468182
 21
8.007955
 31
0.0
  0
LINE
  5
2EA
330
2B2
100
AcDbEntity
  8
100
  6
Continuous
 62
     7
370
    30
100
AcDbLine
 10
143.468182
 20
8.007955
 30
0.0
 11
139.479545
 21
5.0625
 31
0.0
  0
LINE
  5
2EB
330
2B2
100
AcDbEntity
  8
100
  6
Continuous
 62
     7
370
    30
100
AcDbLine
 10
139.479545
 20
5.0625
 30
0.0
 11
136.043182
 21
2.792045
 31
0.0
  0
LINE
  5
2EC
330
2B2
100
AcDbEntity
  8
100
  6
Continuous
 62
     7
370
    30
100
AcDbLine
 10
136.043182
 20
2.792045
 30
0.0
 11
131.993182
 21
0.582955
 31
0.0
  0
LINE
  5
2ED
330
2B2
100
AcDbEntity
  8
100
  6
Continuous
 62
     7
370
    30
100
AcDbLine
 10
131.993182
 20
0.582955
 30
0.0
 11
127.513636
 21
-1.442045
 31
0.0
  0
LINE
  5
2EE
330
2B2
100
AcDbEntity
  8
100
  6
Continuous
 62
     7
370
    30
100
AcDbLine
 10
127.513636
 20
-1.442045
 30
0.0
 11
123.525
 21
-2.853409
 31
0.0
  0
LINE
  5
2EF
330
2B2
100
AcDbEntity
  8
100
  6
Continuous
 62
     7
370
    30
100
AcDbLine
 10
123.525
 20
-2.853409
 30
0.0
 11
119.904545
 21
-3.896591
 31
0.0
  0
LINE
  5
2F0
330
2B2
100
AcDbEntity
  8
100
  6
Continuous
 62
     7
370
    30
100
AcDbLine
 10
119.904545
 20
-3.896591
 30
0.0
 11
116.1
 21
-4.817045
 31
0.0
  0
LINE
  5
2F1
330
2B2
100
AcDbEntity
  8
100
  6
Continuous
 62
     7
370
    30
100
AcDbLine
 10
116.1
 20
-4.817045
 30
0.0
 11
112.909091
 21
-5.0625
 31
0.0
  0
LINE
  5
2F2
330
2B2
100
AcDbEntity
  8
100
  6
Continuous
 62
     7
370
    30
100
AcDbLine
 10
112.909091
 20
-5.0625
 30
0.0
 11
111.436364
 21
-5.185227
 31
0.0
  0
LINE
  5
2F3
330
2B2
100
AcDbEntity
  8
100
  6
Continuous
 62
     7
370
    30
100
AcDbLine
 10
111.436364
 20
-5.185227
 30
0.0
 11
112.725
 21
-3.221591
 31
0.0
  0
LINE
  5
2F4
330
2B2
100
AcDbEntity
  8
100
  6
Continuous
 62
     7
370
    30
100
AcDbLine
 10
112.725
 20
-3.221591
 30
0.0
 11
113.952273
 21
1.319318
 31
0.0
  0
LINE
  5
2F5
330
2B2
100
AcDbEntity
  8
100
  6
Continuous
 62
     7
370
    30
100
AcDbLine
 10
113.952273
 20
1.319318
 30
0.0
 11
114.75
 21
4.632955
 31
0.0
  0
LINE
  5
2F6
330
2B2
100
AcDbEntity
  8
100
  6
Continuous
 62
     7
370
    30
100
AcDbLine
 10
114.75
 20
4.632955
 30
0.0
 11
115.793182
 21
10.707955
 31
0.0
  0
LINE
  5
2F7
330
2B2
100
AcDbEntity
  8
100
  6
Continuous
 62
     7
370
    30
100
AcDbLine
 10
115.793182
 20
10.707955
 30
0.0
 11
116.345455
 21
15.555682
 31
0.0
  0
ENDBLK
  5
2B4
330
2B2
100
AcDbEntity
  8
0
100
AcDbBlockEnd
  0
BLOCK
  5
2FA
330
2F9
100
AcDbEntity
  8
0
100
AcDbBlockBegin
  2
G29
 70
     0
 10
0.0
 20
0.0
 30
0.0
  3
G29
  1

  0
LINE
  5
2FC
330
2F9
100
AcDbEntity
  8
100
  6
Continuous
 62
     7
370
    30
100
AcDbLine
 10
104.318182
 20
-5.277273
 30
0.0
 11
101.403409
 21
-5.0625
 31
0.0
  0
LINE
  5
2FD
330
2F9
100
AcDbEntity
  8
100
  6
Continuous
 62
     7
370
    30
100
AcDbLine
 10
101.403409
 20
-5.0625
 30
0.0
 11
96.003409
 21
-4.05
 31
0.0
  0
LINE
  5
2FE
330
2F9
100
AcDbEntity
  8
100
  6
Continuous
 62
     7
370
    30
100
AcDbLine
 10
96.003409
 20
-4.05
 30
0.0
 11
90.1125
 21
-2.086364
 31
0.0
  0
LINE
  5
2FF
330
2F9
100
AcDbEntity
  8
100
  6
Continuous
 62
     7
370
    30
100
AcDbLine
 10
90.1125
 20
-2.086364
 30
0.0
 11
82.442045
 21
1.288636
 31
0.0
  0
LINE
  5
300
330
2F9
100
AcDbEntity
  8
100
  6
Continuous
 62
     7
370
    30
100
AcDbLine
 10
82.442045
 20
1.288636
 30
0.0
 11
76.244318
 21
5.215909
 31
0.0
  0
LINE
  5
301
330
2F9
100
AcDbEntity
  8
100
  6
Continuous
 62
     7
370
    30
100
AcDbLine
 10
76.244318
 20
5.215909
 30
0.0
 11
71.2125
 21
9.634091
 31
0.0
  0
LINE
  5
302
330
2F9
100
AcDbEntity
  8
100
  6
Continuous
 62
     7
370
    30
100
AcDbLine
 10
71.2125
 20
9.634091
 30
0.0
 11
65.996591
 21
15.034091
 31
0.0
  0
LINE
  5
303
330
2F9
100
AcDbEntity
  8
100
  6
Continuous
 62
     7
370
    30
100
AcDbLine
 10
65.996591
 20
15.034091
 30
0.0
 11
61.578409
 21
20.556818
 31
0.0
  0
LINE
  5
304
330
2F9
100
AcDbEntity
  8
100
  6
Continuous
 62
     7
370
    30
100
AcDbLine
 10
61.578409
 20
20.556818
 30
0.0
 11
57.651136
 21
27.061364
 31
0.0
  0
LINE
  5
305
330
2F9
100
AcDbEntity
  8
100
  6
Continuous
 62
     7
370
    30
100
AcDbLine
 10
57.651136
 20
27.061364
 30
0.0
 11
54.214773
 21
35.038636
 31
0.0
  0
LINE
  5
306
330
2F9
100
AcDbEntity
  8
100
  6
Continuous
 62
     7
370
    30
100
AcDbLine
 10
54.214773
 20
35.038636
 30
0.0
 11
51.882955
 21
43.506818
 31
0.0
  0
LINE
  5
307
330
2F9
100
AcDbEntity
  8
100
  6
Continuous
 62
     7
370
    30
100
AcDbLine
 10
51.882955
 20
43.506818
 30
0.0
 11
50.778409
 21
50.379545
 31
0.0
  0
LINE
  5
308
330
2F9
100
AcDbEntity
  8
100
  6
Continuous
 62
     7
370
    30
100
AcDbLine
 10
50.778409
 20
50.379545
 30
0.0
 11
50.226136
 21
56.884091
 31
0.0
  0
LINE
  5
309
330
2F9
100
AcDbEntity
  8
100
  6
Continuous
 62
     7
370
    30
100
AcDbLine
 10
50.226136
 20
56.884091
 30
0.0
 11
50.226136
 21
61.977273
 31
0.0
  0
LINE
  5
30A
330
2F9
100
AcDbEntity
  8
100
  6
Continuous
 62
     7
370
    30
100
AcDbLine
 10
50.226136
 20
61.977273
 30
0.0
 11
50.778409
 21
62.222727
 31
0.0
  0
LINE
  5
30B
330
2F9
100
AcDbEntity
  8
100
  6
Continuous
 62
     7
370
    30
100
AcDbLine
 10
50.778409
 20
62.222727
 30
0.0
 11
50.901136
 21
65.720455
 31
0.0
  0
LINE
  5
30C
330
2F9
100
AcDbEntity
  8
100
  6
Continuous
 62
     7
370
    30
100
AcDbLine
 10
50.901136
 20
65.720455
 30
0.0
 11
49.980682
 21
67.193182
 31
0.0
  0
LINE
  5
30D
330
2F9
100
AcDbEntity
  8
100
  6
Continuous
 62
     7
370
    30
100
AcDbLine
 10
49.980682
 20
67.193182
 30
0.0
 11
48.569318
 21
68.359091
 31
0.0
  0
LINE
  5
30E
330
2F9
100
AcDbEntity
  8
100
  6
Continuous
 62
     7
370
    30
100
AcDbLine
 10
48.569318
 20
68.359091
 30
0.0
 11
47.342045
 21
69.156818
 31
0.0
  0
LINE
  5
30F
330
2F9
100
AcDbEntity
  8
100
  6
Continuous
 62
     7
370
    30
100
AcDbLine
 10
47.342045
 20
69.156818
 30
0.0
 11
45.930682
 21
69.156818
 31
0.0
  0
LINE
  5
310
330
2F9
100
AcDbEntity
  8
100
  6
Continuous
 62
     7
370
    30
100
AcDbLine
 10
45.930682
 20
69.156818
 30
0.0
 11
45.501136
 21
68.665909
 31
0.0
  0
ENDBLK
  5
2FB
330
2F9
100
AcDbEntity
  8
0
100
AcDbBlockEnd
  0
BLOCK
  5
313
330
312
100
AcDbEntity
  8
0
100
AcDbBlockBegin
  2
G30
 70
     0
 10
0.0
 20
0.0
 30
0.0
  3
G30
  1

  0
LINE
  5
315
330
312
100
AcDbEntity
  8
100
  6
Continuous
 62
     7
370
    30
100
AcDbLine
 10
52.251136
 20
70.445455
 30
0.0
 11
51.6375
 21
69.340909
 31
0.0
  0
LINE
  5
316
330
312
100
AcDbEntity
  8
100
  6
Continuous
 62
     7
370
    30
100
AcDbLine
 10
51.6375
 20
69.340909
 30
0.0
 11
51.882955
 21
68.052273
 31
0.0
  0
LINE
  5
317
330
312
100
AcDbEntity
  8
100
  6
Continuous
 62
     7
370
    30
100
AcDbLine
 10
51.882955
 20
68.052273
 30
0.0
 11
52.9875
 21
67.070455
 31
0.0
  0
LINE
  5
318
330
312
100
AcDbEntity
  8
100
  6
Continuous
 62
     7
370
    30
100
AcDbLine
 10
52.9875
 20
67.070455
 30
0.0
 11
53.6625
 21
66.763636
 31
0.0
  0
ENDBLK
  5
314
330
312
100
AcDbEntity
  8
0
100
AcDbBlockEnd
  0
BLOCK
  5
31B
330
31A
100
AcDbEntity
  8
0
100
AcDbBlockBegin
  2
G31
 70
     0
 10
0.0
 20
0.0
 30
0.0
  3
G31
  1

  0
LINE
  5
31D
330
31A
100
AcDbEntity
  8
100
  6
Continuous
 62
     7
370
    30
100
AcDbLine
 10
169.977273
 20
76.182955
 30
0.0
 11
172.370455
 21
75.078409
 31
0.0
  0
LINE
  5
31E
330
31A
100
AcDbEntity
  8
100
  6
Continuous
 62
     7
370
    30
100
AcDbLine
 10
172.370455
 20
75.078409
 30
0.0
 11
174.334091
 21
73.667045
 31
0.0
  0
LINE
  5
31F
330
31A
100
AcDbEntity
  8
100
  6
Continuous
 62
     7
370
    30
100
AcDbLine
 10
174.334091
 20
73.667045
 30
0.0
 11
175.254545
 21
72.255682
 31
0.0
  0
LINE
  5
320
330
31A
100
AcDbEntity
  8
100
  6
Continuous
 62
     7
370
    30
100
AcDbLine
 10
175.254545
 20
72.255682
 30
0.0
 11
175.315909
 21
70.353409
 31
0.0
  0
LINE
  5
321
330
31A
100
AcDbEntity
  8
100
  6
Continuous
 62
     7
370
    30
100
AcDbLine
 10
175.315909
 20
70.353409
 30
0.0
 11
174.211364
 21
69.1875
 31
0.0
  0
LINE
  5
322
330
31A
100
AcDbEntity
  8
100
  6
Continuous
 62
     7
370
    30
100
AcDbLine
 10
174.211364
 20
69.1875
 30
0.0
 11
171.910227
 21
67.377273
 31
0.0
  0
ENDBLK
  5
31C
330
31A
100
AcDbEntity
  8
0
100
AcDbBlockEnd
  0
BLOCK
  5
325
330
324
100
AcDbEntity
  8
0
100
AcDbBlockBegin
  2
G32
 70
     0
 10
0.0
 20
0.0
 30
0.0
  3
G32
  1

  0
LINE
  5
327
330
324
100
AcDbEntity
  8
100
  6
Continuous
 62
     7
370
    30
100
AcDbLine
 10
160.343182
 20
63.726136
 30
0.0
 11
164.209091
 21
64.217045
 31
0.0
  0
LINE
  5
328
330
324
100
AcDbEntity
  8
100
  6
Continuous
 62
     7
370
    30
100
AcDbLine
 10
164.209091
 20
64.217045
 30
0.0
 11
167.432038
 21
65.069039
 31
0.0
  0
ENDBLK
  5
326
330
324
100
AcDbEntity
  8
0
100
AcDbBlockEnd
  0
BLOCK
  5
32B
330
32A
100
AcDbEntity
  8
0
100
AcDbBlockBegin
  2
G33
 70
     0
 10
0.0
 20
0.0
 30
0.0
  3
G33
  1

  0
LINE
  5
32D
330
32A
100
AcDbEntity
  8
100
  6
Continuous
 62
     7
370
    30
100
AcDbLine
 10
160.343182
 20
69.555682
 30
0.0
 11
162.368182
 21
69.8625
 31
0.0
  0
LINE
  5
32E
330
32A
100
AcDbEntity
  8
100
  6
Continuous
 62
     7
370
    30
100
AcDbLine
 10
162.368182
 20
69.8625
 30
0.0
 11
163.779545
 21
71.151136
 31
0.0
  0
LINE
  5
32F
330
32A
100
AcDbEntity
  8
100
  6
Continuous
 62
     7
370
    30
100
AcDbLine
 10
163.779545
 20
71.151136
 30
0.0
 11
164.822727
 21
70.476136
 31
0.0
  0
LINE
  5
330
330
32A
100
AcDbEntity
  8
100
  6
Continuous
 62
     7
370
    30
100
AcDbLine
 10
164.822727
 20
70.476136
 30
0.0
 11
164.7
 21
69.064773
 31
0.0
  0
LINE
  5
331
330
32A
100
AcDbEntity
  8
100
  6
Continuous
 62
     7
370
    30
100
AcDbLine
 10
164.7
 20
69.064773
 30
0.0
 11
162.613636
 21
67.223864
 31
0.0
  0
LINE
  5
332
330
32A
100
AcDbEntity
  8
100
  6
Continuous
 62
     7
370
    30
100
AcDbLine
 10
162.613636
 20
67.223864
 30
0.0
 11
160.404545
 21
66.242045
 31
0.0
  0
LINE
  5
333
330
32A
100
AcDbEntity
  8
100
  6
Continuous
 62
     7
370
    30
100
AcDbLine
 10
160.404545
 20
66.242045
 30
0.0
 11
160.067045
 21
60.259091
 31
0.0
  0
LINE
  5
334
330
32A
100
AcDbEntity
  8
100
  6
Continuous
 62
     7
370
    30
100
AcDbLine
 10
160.067045
 20
60.259091
 30
0.0
 11
158.348864
 21
52.895455
 31
0.0
  0
LINE
  5
335
330
32A
100
AcDbEntity
  8
100
  6
Continuous
 62
     7
370
    30
100
AcDbLine
 10
158.348864
 20
52.895455
 30
0.0
 11
155.894318
 21
46.268182
 31
0.0
  0
LINE
  5
336
330
32A
100
AcDbEntity
  8
100
  6
Continuous
 62
     7
370
    30
100
AcDbLine
 10
155.894318
 20
46.268182
 30
0.0
 11
150.126136
 21
37.063636
 31
0.0
  0
LINE
  5
337
330
32A
100
AcDbEntity
  8
100
  6
Continuous
 62
     7
370
    30
100
AcDbLine
 10
150.126136
 20
37.063636
 30
0.0
 11
142.394318
 21
28.472727
 31
0.0
  0
LINE
  5
338
330
32A
100
AcDbEntity
  8
100
  6
Continuous
 62
     7
370
    30
100
AcDbLine
 10
142.394318
 20
28.472727
 30
0.0
 11
134.417045
 21
23.195455
 31
0.0
  0
LINE
  5
339
330
32A
100
AcDbEntity
  8
100
  6
Continuous
 62
     7
370
    30
100
AcDbLine
 10
134.417045
 20
23.195455
 30
0.0
 11
127.176136
 21
18.9
 31
0.0
  0
LINE
  5
33A
330
32A
100
AcDbEntity
  8
100
  6
Continuous
 62
     7
370
    30
100
AcDbLine
 10
127.176136
 20
18.9
 30
0.0
 11
120.794318
 21
16.2
 31
0.0
  0
LINE
  5
33B
330
32A
100
AcDbEntity
  8
100
  6
Continuous
 62
     7
370
    30
100
AcDbLine
 10
120.794318
 20
16.2
 30
0.0
 11
114.535227
 21
15.095455
 31
0.0
  0
LINE
  5
33C
330
32A
100
AcDbEntity
  8
100
  6
Continuous
 62
     7
370
    30
100
AcDbLine
 10
114.535227
 20
15.095455
 30
0.0
 11
107.417045
 21
14.481818
 31
0.0
  0
LINE
  5
33D
330
32A
100
AcDbEntity
  8
100
  6
Continuous
 62
     7
370
    30
100
AcDbLine
 10
107.417045
 20
14.481818
 30
0.0
 11
105.340627
 21
14.699976
 31
0.0
  0
ENDBLK
  5
32C
330
32A
100
AcDbEntity
  8
0
100
AcDbBlockEnd
  0
BLOCK
  5
340
330
33F
100
AcDbEntity
  8
0
100
AcDbBlockBegin
  2
G34
 70
     0
 10
0.0
 20
0.0
 30
0.0
  3
G34
  1

  0
LINE
  5
342
330
33F
100
AcDbEntity
  8
100
  6
Continuous
 62
     7
370
    30
100
AcDbLine
 10
163.779545
 20
71.151136
 30
0.0
 11
159.852273
 21
72.807955
 31
0.0
  0
LINE
  5
343
330
33F
100
AcDbEntity
  8
100
  6
Continuous
 62
     7
370
    30
100
AcDbLine
 10
159.852273
 20
72.807955
 30
0.0
 11
155.986364
 21
73.851136
 31
0.0
  0
LINE
  5
344
330
33F
100
AcDbEntity
  8
100
  6
Continuous
 62
     7
370
    30
100
AcDbLine
 10
155.986364
 20
73.851136
 30
0.0
 11
149.481818
 21
74.955682
 31
0.0
  0
LINE
  5
345
330
33F
100
AcDbEntity
  8
100
  6
Continuous
 62
     7
370
    30
100
AcDbLine
 10
149.481818
 20
74.955682
 30
0.0
 11
136.411364
 21
76.121591
 31
0.0
  0
ENDBLK
  5
341
330
33F
100
AcDbEntity
  8
0
100
AcDbBlockEnd
  0
BLOCK
  5
348
330
347
100
AcDbEntity
  8
0
100
AcDbBlockBegin
  2
G35
 70
     0
 10
0.0
 20
0.0
 30
0.0
  3
G35
  1

  0
LINE
  5
34A
330
347
100
AcDbEntity
  8
100
  6
Continuous
 62
     7
370
    30
100
AcDbLine
 10
125.059091
 20
76.6125
 30
0.0
 11
115.793182
 21
76.673864
 31
0.0
  0
LINE
  5
34B
330
347
100
AcDbEntity
  8
100
  6
Continuous
 62
     7
370
    30
100
AcDbLine
 10
115.793182
 20
76.673864
 30
0.0
 11
106.404545
 21
77.042045
 31
0.0
  0
LINE
  5
34C
330
347
100
AcDbEntity
  8
100
  6
Continuous
 62
     7
370
    30
100
AcDbLine
 10
106.404545
 20
77.042045
 30
0.0
 11
102.047727
 21
76.735227
 31
0.0
  0
LINE
  5
34D
330
347
100
AcDbEntity
  8
100
  6
Continuous
 62
     7
370
    30
100
AcDbLine
 10
102.047727
 20
76.735227
 30
0.0
 11
101.925
 21
77.747727
 31
0.0
  0
LINE
  5
34E
330
347
100
AcDbEntity
  8
100
  6
Continuous
 62
     7
370
    30
100
AcDbLine
 10
101.925
 20
77.747727
 30
0.0
 11
100.452273
 21
78.054545
 31
0.0
  0
LINE
  5
34F
330
347
100
AcDbEntity
  8
100
  6
Continuous
 62
     7
370
    30
100
AcDbLine
 10
100.452273
 20
78.054545
 30
0.0
 11
98.677361
 21
78.336556
 31
0.0
  0
LINE
  5
350
330
347
100
AcDbEntity
  8
100
  6
Continuous
 62
     7
370
    30
100
AcDbLine
 10
98.677361
 20
78.336556
 30
0.0
 11
97.138636
 21
78.085227
 31
0.0
  0
LINE
  5
351
330
347
100
AcDbEntity
  8
100
  6
Continuous
 62
     7
370
    30
100
AcDbLine
 10
97.138636
 20
78.085227
 30
0.0
 11
96.340909
 21
77.502273
 31
0.0
  0
LINE
  5
352
330
347
100
AcDbEntity
  8
100
  6
Continuous
 62
     7
370
    30
100
AcDbLine
 10
96.340909
 20
77.502273
 30
0.0
 11
96.402273
 21
72.807955
 31
0.0
  0
LINE
  5
353
330
347
100
AcDbEntity
  8
100
  6
Continuous
 62
     7
370
    30
100
AcDbLine
 10
96.402273
 20
72.807955
 30
0.0
 11
96.463636
 21
66.426136
 31
0.0
  0
LINE
  5
354
330
347
100
AcDbEntity
  8
100
  6
Continuous
 62
     7
370
    30
100
AcDbLine
 10
96.463636
 20
66.426136
 30
0.0
 11
96.709091
 21
56.853409
 31
0.0
  0
LINE
  5
355
330
347
100
AcDbEntity
  8
100
  6
Continuous
 62
     7
370
    30
100
AcDbLine
 10
96.709091
 20
56.853409
 30
0.0
 11
97.261364
 21
45.623864
 31
0.0
  0
LINE
  5
356
330
347
100
AcDbEntity
  8
100
  6
Continuous
 62
     7
370
    30
100
AcDbLine
 10
97.261364
 20
45.623864
 30
0.0
 11
98.059091
 21
35.007955
 31
0.0
  0
LINE
  5
357
330
347
100
AcDbEntity
  8
100
  6
Continuous
 62
     7
370
    30
100
AcDbLine
 10
98.059091
 20
35.007955
 30
0.0
 11
98.918182
 21
25.864773
 31
0.0
  0
LINE
  5
358
330
347
100
AcDbEntity
  8
100
  6
Continuous
 62
     7
370
    30
100
AcDbLine
 10
98.918182
 20
25.864773
 30
0.0
 11
100.268182
 21
16.169318
 31
0.0
  0
LINE
  5
359
330
347
100
AcDbEntity
  8
100
  6
Continuous
 62
     7
370
    30
100
AcDbLine
 10
100.268182
 20
16.169318
 30
0.0
 11
101.618182
 21
7.7625
 31
0.0
  0
LINE
  5
35A
330
347
100
AcDbEntity
  8
100
  6
Continuous
 62
     7
370
    30
100
AcDbLine
 10
101.618182
 20
7.7625
 30
0.0
 11
103.275
 21
0.0
 31
0.0
  0
LINE
  5
35B
330
347
100
AcDbEntity
  8
100
  6
Continuous
 62
     7
370
    30
100
AcDbLine
 10
103.275
 20
0.0
 30
0.0
 11
104.747727
 21
-4.755682
 31
0.0
  0
LINE
  5
35C
330
347
100
AcDbEntity
  8
100
  6
Continuous
 62
     7
370
    30
100
AcDbLine
 10
104.747727
 20
-4.755682
 30
0.0
 11
105.545455
 21
-6.842045
 31
0.0
  0
LINE
  5
35D
330
347
100
AcDbEntity
  8
100
  6
Continuous
 62
     7
370
    30
100
AcDbLine
 10
105.545455
 20
-6.842045
 30
0.0
 11
107.877273
 21
-7.823864
 31
0.0
  0
LINE
  5
35E
330
347
100
AcDbEntity
  8
100
  6
Continuous
 62
     7
370
    30
100
AcDbLine
 10
107.877273
 20
-7.823864
 30
0.0
 11
109.043182
 21
-7.455682
 31
0.0
  0
LINE
  5
35F
330
347
100
AcDbEntity
  8
100
  6
Continuous
 62
     7
370
    30
100
AcDbLine
 10
109.043182
 20
-7.455682
 30
0.0
 11
110.454545
 21
-6.105682
 31
0.0
  0
LINE
  5
360
330
347
100
AcDbEntity
  8
100
  6
Continuous
 62
     7
370
    30
100
AcDbLine
 10
110.454545
 20
-6.105682
 30
0.0
 11
111.436364
 21
-5.185227
 31
0.0
  0
ENDBLK
  5
349
330
347
100
AcDbEntity
  8
0
100
AcDbBlockEnd
  0
BLOCK
  5
363
330
362
100
AcDbEntity
  8
0
100
AcDbBlockBegin
  2
G36
 70
     0
 10
0.0
 20
0.0
 30
0.0
  3
G36
  1

  0
LINE
  5
365
330
362
100
AcDbEntity
  8
100
  6
Continuous
 62
     7
370
    30
100
AcDbLine
 10
96.218182
 20
76.673864
 30
0.0
 11
86.768182
 21
76.305682
 31
0.0
  0
LINE
  5
366
330
362
100
AcDbEntity
  8
100
  6
Continuous
 62
     7
370
    30
100
AcDbLine
 10
86.768182
 20
76.305682
 30
0.0
 11
77.870455
 21
75.753409
 31
0.0
  0
LINE
  5
367
330
362
100
AcDbEntity
  8
100
  6
Continuous
 62
     7
370
    30
100
AcDbLine
 10
77.870455
 20
75.753409
 30
0.0
 11
71.672727
 21
75.201136
 31
0.0
  0
LINE
  5
368
330
362
100
AcDbEntity
  8
100
  6
Continuous
 62
     7
370
    30
100
AcDbLine
 10
71.672727
 20
75.201136
 30
0.0
 11
66.272727
 21
74.526136
 31
0.0
  0
LINE
  5
369
330
362
100
AcDbEntity
  8
100
  6
Continuous
 62
     7
370
    30
100
AcDbLine
 10
66.272727
 20
74.526136
 30
0.0
 11
60.320455
 21
73.421591
 31
0.0
  0
LINE
  5
36A
330
362
100
AcDbEntity
  8
100
  6
Continuous
 62
     7
370
    30
100
AcDbLine
 10
60.320455
 20
73.421591
 30
0.0
 11
55.718182
 21
72.255682
 31
0.0
  0
LINE
  5
36B
330
362
100
AcDbEntity
  8
100
  6
Continuous
 62
     7
370
    30
100
AcDbLine
 10
55.718182
 20
72.255682
 30
0.0
 11
53.539773
 21
71.120455
 31
0.0
  0
LINE
  5
36C
330
362
100
AcDbEntity
  8
100
  6
Continuous
 62
     7
370
    30
100
AcDbLine
 10
53.539773
 20
71.120455
 30
0.0
 11
53.938636
 21
64.523864
 31
0.0
  0
LINE
  5
36D
330
362
100
AcDbEntity
  8
100
  6
Continuous
 62
     7
370
    30
100
AcDbLine
 10
53.938636
 20
64.523864
 30
0.0
 11
54.306818
 21
59.7375
 31
0.0
  0
LINE
  5
36E
330
362
100
AcDbEntity
  8
100
  6
Continuous
 62
     7
370
    30
100
AcDbLine
 10
54.306818
 20
59.7375
 30
0.0
 11
55.043182
 21
54.582955
 31
0.0
  0
LINE
  5
36F
330
362
100
AcDbEntity
  8
100
  6
Continuous
 62
     7
370
    30
100
AcDbLine
 10
55.043182
 20
54.582955
 30
0.0
 11
57.743182
 21
47.5875
 31
0.0
  0
LINE
  5
370
330
362
100
AcDbEntity
  8
100
  6
Continuous
 62
     7
370
    30
100
AcDbLine
 10
57.743182
 20
47.5875
 30
0.0
 11
61.179545
 21
40.960227
 31
0.0
  0
LINE
  5
371
330
362
100
AcDbEntity
  8
100
  6
Continuous
 62
     7
370
    30
100
AcDbLine
 10
61.179545
 20
40.960227
 30
0.0
 11
64.984091
 21
35.560227
 31
0.0
  0
LINE
  5
372
330
362
100
AcDbEntity
  8
100
  6
Continuous
 62
     7
370
    30
100
AcDbLine
 10
64.984091
 20
35.560227
 30
0.0
 11
71.979545
 21
28.810227
 31
0.0
  0
LINE
  5
373
330
362
100
AcDbEntity
  8
100
  6
Continuous
 62
     7
370
    30
100
AcDbLine
 10
71.979545
 20
28.810227
 30
0.0
 11
76.765909
 21
25.128409
 31
0.0
  0
LINE
  5
374
330
362
100
AcDbEntity
  8
100
  6
Continuous
 62
     7
370
    30
100
AcDbLine
 10
76.765909
 20
25.128409
 30
0.0
 11
81.552273
 21
22.428409
 31
0.0
  0
LINE
  5
375
330
362
100
AcDbEntity
  8
100
  6
Continuous
 62
     7
370
    30
100
AcDbLine
 10
81.552273
 20
22.428409
 30
0.0
 11
89.775
 21
18.746591
 31
0.0
  0
LINE
  5
376
330
362
100
AcDbEntity
  8
100
  6
Continuous
 62
     7
370
    30
100
AcDbLine
 10
89.775
 20
18.746591
 30
0.0
 11
95.175
 21
16.660227
 31
0.0
  0
LINE
  5
377
330
362
100
AcDbEntity
  8
100
  6
Continuous
 62
     7
370
    30
100
AcDbLine
 10
95.175
 20
16.660227
 30
0.0
 11
99.132955
 21
15.371591
 31
0.0
  0
LINE
  5
378
330
362
100
AcDbEntity
  8
100
  6
Continuous
 62
     7
370
    30
100
AcDbLine
 10
99.132955
 20
15.371591
 30
0.0
 11
100.43226
 21
15.147558
 31
0.0
  0
ENDBLK
  5
364
330
362
100
AcDbEntity
  8
0
100
AcDbBlockEnd
  0
BLOCK
  5
37B
330
37A
100
AcDbEntity
  8
0
100
AcDbBlockBegin
  2
G37
 70
     0
 10
0.0
 20
0.0
 30
0.0
  3
G37
  1

  0
LINE
  5
37D
330
37A
100
AcDbEntity
  8
100
  6
Continuous
 62
     7
370
    30
100
AcDbLine
 10
41.345981
 20
69.609671
 30
0.0
 11
43.445455
 21
71.457955
 31
0.0
  0
LINE
  5
37E
330
37A
100
AcDbEntity
  8
100
  6
Continuous
 62
     7
370
    30
100
AcDbLine
 10
43.445455
 20
71.457955
 30
0.0
 11
46.329545
 21
73.2375
 31
0.0
  0
LINE
  5
37F
330
37A
100
AcDbEntity
  8
100
  6
Continuous
 62
     7
370
    30
100
AcDbLine
 10
46.329545
 20
73.2375
 30
0.0
 11
49.95
 21
74.526136
 31
0.0
  0
LINE
  5
380
330
37A
100
AcDbEntity
  8
100
  6
Continuous
 62
     7
370
    30
100
AcDbLine
 10
49.95
 20
74.526136
 30
0.0
 11
54.859091
 21
75.507955
 31
0.0
  0
LINE
  5
381
330
37A
100
AcDbEntity
  8
100
  6
Continuous
 62
     7
370
    30
100
AcDbLine
 10
54.859091
 20
75.507955
 30
0.0
 11
61.179545
 21
76.121591
 31
0.0
  0
LINE
  5
382
330
37A
100
AcDbEntity
  8
100
  6
Continuous
 62
     7
370
    30
100
AcDbLine
 10
61.179545
 20
76.121591
 30
0.0
 11
67.745455
 21
76.673864
 31
0.0
  0
LINE
  5
383
330
37A
100
AcDbEntity
  8
100
  6
Continuous
 62
     7
370
    30
100
AcDbLine
 10
67.745455
 20
76.673864
 30
0.0
 11
77.318182
 21
77.410227
 31
0.0
  0
LINE
  5
384
330
37A
100
AcDbEntity
  8
100
  6
Continuous
 62
     7
370
    30
100
AcDbLine
 10
77.318182
 20
77.410227
 30
0.0
 11
84.436364
 21
77.9625
 31
0.0
  0
LINE
  5
385
330
37A
100
AcDbEntity
  8
100
  6
Continuous
 62
     7
370
    30
100
AcDbLine
 10
84.436364
 20
77.9625
 30
0.0
 11
90.634091
 21
78.207955
 31
0.0
  0
LINE
  5
386
330
37A
100
AcDbEntity
  8
100
  6
Continuous
 62
     7
370
    30
100
AcDbLine
 10
90.634091
 20
78.207955
 30
0.0
 11
96.402273
 21
78.392045
 31
0.0
  0
LINE
  5
387
330
37A
100
AcDbEntity
  8
100
  6
Continuous
 62
     7
370
    30
100
AcDbLine
 10
96.402273
 20
78.392045
 30
0.0
 11
98.918182
 21
78.330682
 31
0.0
  0
LINE
  5
388
330
37A
100
AcDbEntity
  8
100
  6
Continuous
 62
     7
370
    30
100
AcDbLine
 10
98.918182
 20
78.330682
 30
0.0
 11
101.863636
 21
78.330682
 31
0.0
  0
LINE
  5
389
330
37A
100
AcDbEntity
  8
100
  6
Continuous
 62
     7
370
    30
100
AcDbLine
 10
101.863636
 20
78.330682
 30
0.0
 11
111.129545
 21
78.6375
 31
0.0
  0
LINE
  5
38A
330
37A
100
AcDbEntity
  8
100
  6
Continuous
 62
     7
370
    30
100
AcDbLine
 10
111.129545
 20
78.6375
 30
0.0
 11
118.8
 21
78.576136
 31
0.0
  0
LINE
  5
38B
330
37A
100
AcDbEntity
  8
100
  6
Continuous
 62
     7
370
    30
100
AcDbLine
 10
118.8
 20
78.576136
 30
0.0
 11
125.918182
 21
78.453409
 31
0.0
  0
LINE
  5
38C
330
37A
100
AcDbEntity
  8
100
  6
Continuous
 62
     7
370
    30
100
AcDbLine
 10
125.918182
 20
78.453409
 30
0.0
 11
132.975
 21
78.207955
 31
0.0
  0
LINE
  5
38D
330
37A
100
AcDbEntity
  8
100
  6
Continuous
 62
     7
370
    30
100
AcDbLine
 10
132.975
 20
78.207955
 30
0.0
 11
139.295455
 21
77.839773
 31
0.0
  0
LINE
  5
38E
330
37A
100
AcDbEntity
  8
100
  6
Continuous
 62
     7
370
    30
100
AcDbLine
 10
139.295455
 20
77.839773
 30
0.0
 11
147.947727
 21
77.042045
 31
0.0
  0
LINE
  5
38F
330
37A
100
AcDbEntity
  8
100
  6
Continuous
 62
     7
370
    30
100
AcDbLine
 10
147.947727
 20
77.042045
 30
0.0
 11
155.127273
 21
76.551136
 31
0.0
  0
LINE
  5
390
330
37A
100
AcDbEntity
  8
100
  6
Continuous
 62
     7
370
    30
100
AcDbLine
 10
155.127273
 20
76.551136
 30
0.0
 11
161.447727
 21
75.753409
 31
0.0
  0
LINE
  5
391
330
37A
100
AcDbEntity
  8
100
  6
Continuous
 62
     7
370
    30
100
AcDbLine
 10
161.447727
 20
75.753409
 30
0.0
 11
167.215909
 21
74.403409
 31
0.0
  0
LINE
  5
392
330
37A
100
AcDbEntity
  8
100
  6
Continuous
 62
     7
370
    30
100
AcDbLine
 10
167.215909
 20
74.403409
 30
0.0
 11
170.222727
 21
73.728409
 31
0.0
  0
LINE
  5
393
330
37A
100
AcDbEntity
  8
100
  6
Continuous
 62
     7
370
    30
100
AcDbLine
 10
170.222727
 20
73.728409
 30
0.0
 11
172.309091
 21
72.685227
 31
0.0
  0
LINE
  5
394
330
37A
100
AcDbEntity
  8
100
  6
Continuous
 62
     7
370
    30
100
AcDbLine
 10
172.309091
 20
72.685227
 30
0.0
 11
173.536364
 21
72.132955
 31
0.0
  0
LINE
  5
395
330
37A
100
AcDbEntity
  8
100
  6
Continuous
 62
     7
370
    30
100
AcDbLine
 10
173.536364
 20
72.132955
 30
0.0
 11
174.579545
 21
71.028409
 31
0.0
  0
LINE
  5
396
330
37A
100
AcDbEntity
  8
100
  6
Continuous
 62
     7
370
    30
100
AcDbLine
 10
174.579545
 20
71.028409
 30
0.0
 11
175.315909
 21
70.353409
 31
0.0
  0
ENDBLK
  5
37C
330
37A
100
AcDbEntity
  8
0
100
AcDbBlockEnd
  0
BLOCK
  5
399
330
398
100
AcDbEntity
  8
0
100
AcDbBlockBegin
  2
G38
 70
     0
 10
0.0
 20
0.0
 30
0.0
  3
G38
  1

  0
LINE
  5
39B
330
398
100
AcDbEntity
  8
100
  6
Continuous
 62
     7
370
    30
100
AcDbLine
 10
102.139773
 20
75.507955
 30
0.0
 11
102.170455
 21
66.4875
 31
0.0
  0
LINE
  5
39C
330
398
100
AcDbEntity
  8
100
  6
Continuous
 62
     7
370
    30
100
AcDbLine
 10
102.170455
 20
66.4875
 30
0.0
 11
102.170455
 21
61.148864
 31
0.0
  0
LINE
  5
39D
330
398
100
AcDbEntity
  8
100
  6
Continuous
 62
     7
370
    30
100
AcDbLine
 10
102.170455
 20
61.148864
 30
0.0
 11
102.415909
 21
55.073864
 31
0.0
  0
LINE
  5
39E
330
398
100
AcDbEntity
  8
100
  6
Continuous
 62
     7
370
    30
100
AcDbLine
 10
102.415909
 20
55.073864
 30
0.0
 11
102.722727
 21
49.6125
 31
0.0
  0
LINE
  5
39F
330
398
100
AcDbEntity
  8
100
  6
Continuous
 62
     7
370
    30
100
AcDbLine
 10
102.722727
 20
49.6125
 30
0.0
 11
103.152273
 21
44.2125
 31
0.0
  0
LINE
  5
3A0
330
398
100
AcDbEntity
  8
100
  6
Continuous
 62
     7
370
    30
100
AcDbLine
 10
103.152273
 20
44.2125
 30
0.0
 11
103.397727
 21
38.260227
 31
0.0
  0
LINE
  5
3A1
330
398
100
AcDbEntity
  8
100
  6
Continuous
 62
     7
370
    30
100
AcDbLine
 10
103.397727
 20
38.260227
 30
0.0
 11
103.581818
 21
30.160227
 31
0.0
  0
LINE
  5
3A2
330
398
100
AcDbEntity
  8
100
  6
Continuous
 62
     7
370
    30
100
AcDbLine
 10
103.581818
 20
30.160227
 30
0.0
 11
104.072727
 21
23.532955
 31
0.0
  0
LINE
  5
3A3
330
398
100
AcDbEntity
  8
100
  6
Continuous
 62
     7
370
    30
100
AcDbLine
 10
104.072727
 20
23.532955
 30
0.0
 11
104.993182
 21
18.869318
 31
0.0
  0
LINE
  5
3A4
330
398
100
AcDbEntity
  8
100
  6
Continuous
 62
     7
370
    30
100
AcDbLine
 10
104.993182
 20
18.869318
 30
0.0
 11
105.484091
 21
12.978409
 31
0.0
  0
LINE
  5
3A5
330
398
100
AcDbEntity
  8
100
  6
Continuous
 62
     7
370
    30
100
AcDbLine
 10
105.484091
 20
12.978409
 30
0.0
 11
106.465909
 21
7.026136
 31
0.0
  0
LINE
  5
3A6
330
398
100
AcDbEntity
  8
100
  6
Continuous
 62
     7
370
    30
100
AcDbLine
 10
106.465909
 20
7.026136
 30
0.0
 11
107.754545
 21
1.564773
 31
0.0
  0
LINE
  5
3A7
330
398
100
AcDbEntity
  8
100
  6
Continuous
 62
     7
370
    30
100
AcDbLine
 10
107.754545
 20
1.564773
 30
0.0
 11
108.490909
 21
-0.521591
 31
0.0
  0
LINE
  5
3A8
330
398
100
AcDbEntity
  8
100
  6
Continuous
 62
     7
370
    30
100
AcDbLine
 10
108.490909
 20
-0.521591
 30
0.0
 11
109.227273
 21
-0.705682
 31
0.0
  0
LINE
  5
3A9
330
398
100
AcDbEntity
  8
100
  6
Continuous
 62
     7
370
    30
100
AcDbLine
 10
109.227273
 20
-0.705682
 30
0.0
 11
110.147727
 21
4.632955
 31
0.0
  0
LINE
  5
3AA
330
398
100
AcDbEntity
  8
100
  6
Continuous
 62
     7
370
    30
100
AcDbLine
 10
110.147727
 20
4.632955
 30
0.0
 11
110.822727
 21
9.1125
 31
0.0
  0
LINE
  5
3AB
330
398
100
AcDbEntity
  8
100
  6
Continuous
 62
     7
370
    30
100
AcDbLine
 10
110.822727
 20
9.1125
 30
0.0
 11
111.252273
 21
12.794318
 31
0.0
  0
LINE
  5
3AC
330
398
100
AcDbEntity
  8
100
  6
Continuous
 62
     7
370
    30
100
AcDbLine
 10
111.252273
 20
12.794318
 30
0.0
 11
111.313636
 21
15.064773
 31
0.0
  0
ENDBLK
  5
39A
330
398
100
AcDbEntity
  8
0
100
AcDbBlockEnd
  0
BLOCK
  5
3AF
330
3AE
100
AcDbEntity
  8
0
100
AcDbBlockBegin
  2
G39
 70
     0
 10
0.0
 20
0.0
 30
0.0
  3
G39
  1

  0
LINE
  5
3B1
330
3AE
100
AcDbEntity
  8
100
  6
Continuous
 62
     7
370
    30
100
AcDbLine
 10
160.404545
 20
66.242045
 30
0.0
 11
160.343182
 21
69.555682
 31
0.0
  0
LINE
  5
3B2
330
3AE
100
AcDbEntity
  8
100
  6
Continuous
 62
     7
370
    30
100
AcDbLine
 10
160.343182
 20
69.555682
 30
0.0
 11
160.459881
 21
72.55162
 31
0.0
  0
ENDBLK
  5
3B0
330
3AE
100
AcDbEntity
  8
0
100
AcDbBlockEnd
  0
ENDSEC
  0
SECTION
  2
ENTITIES
  0
MTEXT
  5
E1
330
1F
100
AcDbEntity
  8
100
  6
Continuous
 62
     7
370
     9
100
AcDbMText
 10
-38.21298594841858
 20
300.43742
 30
0.0
 40
25.0
 41
317.1292958257472
 46
25.0
 71
     7
 72
     1
  1
{\fＭＳ ゴシック;\W0.714286;１号フランジゴールド}
 73
     1
 44
1.0
  0
MTEXT
  5
E2
330
1F
100
AcDbEntity
  8
100
  6
Continuous
 62
     7
370
     9
100
AcDbMText
 10
-27.1493730090247
 20
-101.7757571212121
 30
0.0
 40
25.0
 41
293.4182016041797
 46
25.0
 71
     7
 72
     1
  1
{\fＭＳ ゴシック;\W0.714286;松本船舶電機製作所}
 73
     1
 44
1.0
  0
MTEXT
  5
E3
330
1F
100
AcDbEntity
  8
100
  6
Continuous
 62
     7
370
     9
100
AcDbMText
 10
38.93461101225373
 20
333.8465109090908
 30
0.0
 40
25.0
 41
116.5851946359885
 46
25.0
 71
     7
 72
     1
  1
{\fＭＳ ゴシック;\W0.714286;(1-FR-G)}
 73
     1
 44
1.0
  0
MTEXT
  5
E4
330
1F
100
AcDbEntity
  8
100
  6
Continuous
 62
     7
370
     9
100
AcDbMText
 10
24.57781598195004
 20
267.7119612121215
 30
0.0
 40
25.0
 41
151.6165596908841
 46
25.0
 71
     7
 72
     1
  1
{\fＭＳ ゴシック;\W0.714286;[ランプ無]}
 73
     1
 44
1.0
  0
INSERT
  5
3B4
330
1F
100
AcDbEntity
  8
0
100
AcDbBlockReference
  2
G1
 10
0.0
 20
0.0
 30
0.0
  0
LINE
  5
3B5
330
1F
100
AcDbEntity
  8
101
  6
Continuous
 62
     7
370
    30
100
AcDbLine
 10
160.343182
 20
69.555682
 30
0.0
 11
160.459881
 21
72.55162
 31
0.0
  0
LINE
  5
3B6
330
1F
100
AcDbEntity
  8
101
  6
Continuous
 62
     7
370
    30
100
AcDbLine
 10
160.404545
 20
66.242045
 30
0.0
 11
160.343182
 21
69.555682
 31
0.0
  0
LINE
  5
3B7
330
1F
100
AcDbEntity
  8
101
  6
Continuous
 62
     7
370
    30
100
AcDbLine
 10
160.067045
 20
60.259091
 30
0.0
 11
160.404545
 21
66.242045
 31
0.0
  0
LINE
  5
3B8
330
1F
100
AcDbEntity
  8
101
  6
Continuous
 62
     7
370
    30
100
AcDbLine
 10
158.348864
 20
52.895455
 30
0.0
 11
160.067045
 21
60.259091
 31
0.0
  0
LINE
  5
3B9
330
1F
100
AcDbEntity
  8
101
  6
Continuous
 62
     7
370
    30
100
AcDbLine
 10
155.894318
 20
46.268182
 30
0.0
 11
158.348864
 21
52.895455
 31
0.0
  0
LINE
  5
3BA
330
1F
100
AcDbEntity
  8
101
  6
Continuous
 62
     7
370
    30
100
AcDbLine
 10
150.126136
 20
37.063636
 30
0.0
 11
155.894318
 21
46.268182
 31
0.0
  0
LINE
  5
3BB
330
1F
100
AcDbEntity
  8
101
  6
Continuous
 62
     7
370
    30
100
AcDbLine
 10
142.394318
 20
28.472727
 30
0.0
 11
150.126136
 21
37.063636
 31
0.0
  0
LINE
  5
3BC
330
1F
100
AcDbEntity
  8
101
  6
Continuous
 62
     7
370
    30
100
AcDbLine
 10
134.417045
 20
23.195455
 30
0.0
 11
142.394318
 21
28.472727
 31
0.0
  0
LINE
  5
3BD
330
1F
100
AcDbEntity
  8
101
  6
Continuous
 62
     7
370
    30
100
AcDbLine
 10
127.176136
 20
18.9
 30
0.0
 11
134.417045
 21
23.195455
 31
0.0
  0
LINE
  5
3BE
330
1F
100
AcDbEntity
  8
101
  6
Continuous
 62
     7
370
    30
100
AcDbLine
 10
120.794318
 20
16.2
 30
0.0
 11
127.176136
 21
18.9
 31
0.0
  0
LINE
  5
3BF
330
1F
100
AcDbEntity
  8
101
  6
Continuous
 62
     7
370
    30
100
AcDbLine
 10
114.535227
 20
15.095455
 30
0.0
 11
120.794318
 21
16.2
 31
0.0
  0
LINE
  5
3C0
330
1F
100
AcDbEntity
  8
101
  6
Continuous
 62
     7
370
    30
100
AcDbLine
 10
107.417045
 20
14.481818
 30
0.0
 11
114.535227
 21
15.095455
 31
0.0
  0
LINE
  5
3C1
330
1F
100
AcDbEntity
  8
101
  6
Continuous
 62
     7
370
    30
100
AcDbLine
 10
105.340627
 20
14.699976
 30
0.0
 11
107.417045
 21
14.481818
 31
0.0
  0
LINE
  5
3C2
330
1F
100
AcDbEntity
  8
101
  6
Continuous
 62
     7
370
    30
100
AcDbLine
 10
99.132955
 20
15.371591
 30
0.0
 11
100.43226
 21
15.147558
 31
0.0
  0
LINE
  5
3C3
330
1F
100
AcDbEntity
  8
101
  6
Continuous
 62
     7
370
    30
100
AcDbLine
 10
95.175
 20
16.660227
 30
0.0
 11
99.132955
 21
15.371591
 31
0.0
  0
LINE
  5
3C4
330
1F
100
AcDbEntity
  8
101
  6
Continuous
 62
     7
370
    30
100
AcDbLine
 10
89.775
 20
18.746591
 30
0.0
 11
95.175
 21
16.660227
 31
0.0
  0
LINE
  5
3C5
330
1F
100
AcDbEntity
  8
101
  6
Continuous
 62
     7
370
    30
100
AcDbLine
 10
81.552273
 20
22.428409
 30
0.0
 11
89.775
 21
18.746591
 31
0.0
  0
LINE
  5
3C6
330
1F
100
AcDbEntity
  8
101
  6
Continuous
 62
     7
370
    30
100
AcDbLine
 10
76.765909
 20
25.128409
 30
0.0
 11
81.552273
 21
22.428409
 31
0.0
  0
LINE
  5
3C7
330
1F
100
AcDbEntity
  8
101
  6
Continuous
 62
     7
370
    30
100
AcDbLine
 10
71.979545
 20
28.810227
 30
0.0
 11
76.765909
 21
25.128409
 31
0.0
  0
LINE
  5
3C8
330
1F
100
AcDbEntity
  8
101
  6
Continuous
 62
     7
370
    30
100
AcDbLine
 10
64.984091
 20
35.560227
 30
0.0
 11
71.979545
 21
28.810227
 31
0.0
  0
LINE
  5
3C9
330
1F
100
AcDbEntity
  8
101
  6
Continuous
 62
     7
370
    30
100
AcDbLine
 10
61.179545
 20
40.960227
 30
0.0
 11
64.984091
 21
35.560227
 31
0.0
  0
LINE
  5
3CA
330
1F
100
AcDbEntity
  8
101
  6
Continuous
 62
     7
370
    30
100
AcDbLine
 10
57.743182
 20
47.5875
 30
0.0
 11
61.179545
 21
40.960227
 31
0.0
  0
LINE
  5
3CB
330
1F
100
AcDbEntity
  8
101
  6
Continuous
 62
     7
370
    30
100
AcDbLine
 10
55.043182
 20
54.582955
 30
0.0
 11
57.743182
 21
47.5875
 31
0.0
  0
LINE
  5
3CC
330
1F
100
AcDbEntity
  8
101
  6
Continuous
 62
     7
370
    30
100
AcDbLine
 10
54.306818
 20
59.7375
 30
0.0
 11
55.043182
 21
54.582955
 31
0.0
  0
LINE
  5
3CD
330
1F
100
AcDbEntity
  8
101
  6
Continuous
 62
     7
370
    30
100
AcDbLine
 10
53.938636
 20
64.523864
 30
0.0
 11
54.306818
 21
59.7375
 31
0.0
  0
LINE
  5
3CE
330
1F
100
AcDbEntity
  8
101
  6
Continuous
 62
     7
370
    30
100
AcDbLine
 10
53.539773
 20
71.120455
 30
0.0
 11
53.938636
 21
64.523864
 31
0.0
  0
LINE
  5
3CF
330
1F
100
AcDbEntity
  8
101
  6
Continuous
 62
     7
370
    30
100
AcDbLine
 10
96.402273
 20
72.807955
 30
0.0
 11
96.340909
 21
77.502273
 31
0.0
  0
LINE
  5
3D0
330
1F
100
AcDbEntity
  8
101
  6
Continuous
 62
     7
370
    30
100
AcDbLine
 10
96.463636
 20
66.426136
 30
0.0
 11
96.402273
 21
72.807955
 31
0.0
  0
LINE
  5
3D1
330
1F
100
AcDbEntity
  8
101
  6
Continuous
 62
     7
370
    30
100
AcDbLine
 10
96.709091
 20
56.853409
 30
0.0
 11
96.463636
 21
66.426136
 31
0.0
  0
LINE
  5
3D2
330
1F
100
AcDbEntity
  8
101
  6
Continuous
 62
     7
370
    30
100
AcDbLine
 10
97.261364
 20
45.623864
 30
0.0
 11
96.709091
 21
56.853409
 31
0.0
  0
LINE
  5
3D3
330
1F
100
AcDbEntity
  8
101
  6
Continuous
 62
     7
370
    30
100
AcDbLine
 10
98.059091
 20
35.007955
 30
0.0
 11
97.261364
 21
45.623864
 31
0.0
  0
LINE
  5
3D4
330
1F
100
AcDbEntity
  8
101
  6
Continuous
 62
     7
370
    30
100
AcDbLine
 10
98.918182
 20
25.864773
 30
0.0
 11
98.059091
 21
35.007955
 31
0.0
  0
LINE
  5
3D5
330
1F
100
AcDbEntity
  8
101
  6
Continuous
 62
     7
370
    30
100
AcDbLine
 10
100.268182
 20
16.169318
 30
0.0
 11
98.918182
 21
25.864773
 31
0.0
  0
LINE
  5
3D6
330
1F
100
AcDbEntity
  8
101
  6
Continuous
 62
     7
370
    30
100
AcDbLine
 10
101.618182
 20
7.7625
 30
0.0
 11
100.268182
 21
16.169318
 31
0.0
  0
LINE
  5
3D7
330
1F
100
AcDbEntity
  8
101
  6
Continuous
 62
     7
370
    30
100
AcDbLine
 10
103.275
 20
0.0
 30
0.0
 11
101.618182
 21
7.7625
 31
0.0
  0
LINE
  5
3D8
330
1F
100
AcDbEntity
  8
101
  6
Continuous
 62
     7
370
    30
100
AcDbLine
 10
104.747727
 20
-4.755682
 30
0.0
 11
103.275
 21
0.0
 31
0.0
  0
LINE
  5
3D9
330
1F
100
AcDbEntity
  8
101
  6
Continuous
 62
     7
370
    30
100
AcDbLine
 10
105.545455
 20
-6.842045
 30
0.0
 11
104.747727
 21
-4.755682
 31
0.0
  0
LINE
  5
3DA
330
1F
100
AcDbEntity
  8
101
  6
Continuous
 62
     7
370
    30
100
AcDbLine
 10
107.877273
 20
-7.823864
 30
0.0
 11
105.545455
 21
-6.842045
 31
0.0
  0
LINE
  5
3DB
330
1F
100
AcDbEntity
  8
101
  6
Continuous
 62
     7
370
    30
100
AcDbLine
 10
109.043182
 20
-7.455682
 30
0.0
 11
107.877273
 21
-7.823864
 31
0.0
  0
LINE
  5
3DC
330
1F
100
AcDbEntity
  8
101
  6
Continuous
 62
     7
370
    30
100
AcDbLine
 10
110.454545
 20
-6.105682
 30
0.0
 11
109.043182
 21
-7.455682
 31
0.0
  0
LINE
  5
3DD
330
1F
100
AcDbEntity
  8
101
  6
Continuous
 62
     7
370
    30
100
AcDbLine
 10
111.436364
 20
-5.185227
 30
0.0
 11
110.454545
 21
-6.105682
 31
0.0
  0
LINE
  5
3DE
330
1F
100
AcDbEntity
  8
101
  6
Continuous
 62
     7
370
    30
100
AcDbLine
 10
112.725
 20
-3.221591
 30
0.0
 11
111.436364
 21
-5.185227
 31
0.0
  0
LINE
  5
3DF
330
1F
100
AcDbEntity
  8
101
  6
Continuous
 62
     7
370
    30
100
AcDbLine
 10
113.952273
 20
1.319318
 30
0.0
 11
112.725
 21
-3.221591
 31
0.0
  0
LINE
  5
3E0
330
1F
100
AcDbEntity
  8
101
  6
Continuous
 62
     7
370
    30
100
AcDbLine
 10
114.75
 20
4.632955
 30
0.0
 11
113.952273
 21
1.319318
 31
0.0
  0
LINE
  5
3E1
330
1F
100
AcDbEntity
  8
101
  6
Continuous
 62
     7
370
    30
100
AcDbLine
 10
115.793182
 20
10.707955
 30
0.0
 11
114.75
 21
4.632955
 31
0.0
  0
LINE
  5
3E2
330
1F
100
AcDbEntity
  8
101
  6
Continuous
 62
     7
370
    30
100
AcDbLine
 10
116.345455
 20
15.555682
 30
0.0
 11
115.793182
 21
10.707955
 31
0.0
  0
LINE
  5
3E3
330
1F
100
AcDbEntity
  8
101
  6
Continuous
 62
     7
370
    30
100
AcDbLine
 10
111.252273
 20
12.794318
 30
0.0
 11
111.313636
 21
15.064773
 31
0.0
  0
LINE
  5
3E4
330
1F
100
AcDbEntity
  8
101
  6
Continuous
 62
     7
370
    30
100
AcDbLine
 10
110.822727
 20
9.1125
 30
0.0
 11
111.252273
 21
12.794318
 31
0.0
  0
LINE
  5
3E5
330
1F
100
AcDbEntity
  8
101
  6
Continuous
 62
     7
370
    30
100
AcDbLine
 10
110.147727
 20
4.632955
 30
0.0
 11
110.822727
 21
9.1125
 31
0.0
  0
LINE
  5
3E6
330
1F
100
AcDbEntity
  8
101
  6
Continuous
 62
     7
370
    30
100
AcDbLine
 10
109.227273
 20
-0.705682
 30
0.0
 11
110.147727
 21
4.632955
 31
0.0
  0
LINE
  5
3E7
330
1F
100
AcDbEntity
  8
101
  6
Continuous
 62
     7
370
    30
100
AcDbLine
 10
108.490909
 20
-0.521591
 30
0.0
 11
109.227273
 21
-0.705682
 31
0.0
  0
LINE
  5
3E8
330
1F
100
AcDbEntity
  8
101
  6
Continuous
 62
     7
370
    30
100
AcDbLine
 10
107.754545
 20
1.564773
 30
0.0
 11
108.490909
 21
-0.521591
 31
0.0
  0
LINE
  5
3E9
330
1F
100
AcDbEntity
  8
101
  6
Continuous
 62
     7
370
    30
100
AcDbLine
 10
106.465909
 20
7.026136
 30
0.0
 11
107.754545
 21
1.564773
 31
0.0
  0
LINE
  5
3EA
330
1F
100
AcDbEntity
  8
101
  6
Continuous
 62
     7
370
    30
100
AcDbLine
 10
105.484091
 20
12.978409
 30
0.0
 11
106.465909
 21
7.026136
 31
0.0
  0
LINE
  5
3EB
330
1F
100
AcDbEntity
  8
101
  6
Continuous
 62
     7
370
    30
100
AcDbLine
 10
104.993182
 20
18.869318
 30
0.0
 11
105.484091
 21
12.978409
 31
0.0
  0
LINE
  5
3EC
330
1F
100
AcDbEntity
  8
101
  6
Continuous
 62
     7
370
    30
100
AcDbLine
 10
104.072727
 20
23.532955
 30
0.0
 11
104.993182
 21
18.869318
 31
0.0
  0
LINE
  5
3ED
330
1F
100
AcDbEntity
  8
101
  6
Continuous
 62
     7
370
    30
100
AcDbLine
 10
103.581818
 20
30.160227
 30
0.0
 11
104.072727
 21
23.532955
 31
0.0
  0
LINE
  5
3EE
330
1F
100
AcDbEntity
  8
101
  6
Continuous
 62
     7
370
    30
100
AcDbLine
 10
103.397727
 20
38.260227
 30
0.0
 11
103.581818
 21
30.160227
 31
0.0
  0
LINE
  5
3EF
330
1F
100
AcDbEntity
  8
101
  6
Continuous
 62
     7
370
    30
100
AcDbLine
 10
103.152273
 20
44.2125
 30
0.0
 11
103.397727
 21
38.260227
 31
0.0
  0
LINE
  5
3F0
330
1F
100
AcDbEntity
  8
101
  6
Continuous
 62
     7
370
    30
100
AcDbLine
 10
102.722727
 20
49.6125
 30
0.0
 11
103.152273
 21
44.2125
 31
0.0
  0
LINE
  5
3F1
330
1F
100
AcDbEntity
  8
101
  6
Continuous
 62
     7
370
    30
100
AcDbLine
 10
102.415909
 20
55.073864
 30
0.0
 11
102.722727
 21
49.6125
 31
0.0
  0
LINE
  5
3F2
330
1F
100
AcDbEntity
  8
101
  6
Continuous
 62
     7
370
    30
100
AcDbLine
 10
102.170455
 20
61.148864
 30
0.0
 11
102.415909
 21
55.073864
 31
0.0
  0
LINE
  5
3F3
330
1F
100
AcDbEntity
  8
101
  6
Continuous
 62
     7
370
    30
100
AcDbLine
 10
102.170455
 20
66.4875
 30
0.0
 11
102.170455
 21
61.148864
 31
0.0
  0
LINE
  5
3F4
330
1F
100
AcDbEntity
  8
101
  6
Continuous
 62
     7
370
    30
100
AcDbLine
 10
102.139773
 20
75.507955
 30
0.0
 11
102.170455
 21
66.4875
 31
0.0
  0
LINE
  5
3F5
330
1F
100
AcDbEntity
  8
101
  6
Continuous
 62
     7
370
    30
100
AcDbLine
 10
102.047727
 20
76.735227
 30
0.0
 11
102.139773
 21
75.507955
 31
0.0
  0
LINE
  5
3F6
330
1F
100
AcDbEntity
  8
101
  6
Continuous
 62
     7
370
    30
100
AcDbLine
 10
101.925
 20
77.747727
 30
0.0
 11
102.047727
 21
76.735227
 31
0.0
  0
LINE
  5
3F7
330
1F
100
AcDbEntity
  8
101
  6
Continuous
 62
     7
370
    30
100
AcDbLine
 10
100.452273
 20
78.054545
 30
0.0
 11
101.925
 21
77.747727
 31
0.0
  0
LINE
  5
3F8
330
1F
100
AcDbEntity
  8
101
  6
Continuous
 62
     7
370
    30
100
AcDbLine
 10
98.677361
 20
78.336556
 30
0.0
 11
100.452273
 21
78.054545
 31
0.0
  0
LINE
  5
3F9
330
1F
100
AcDbEntity
  8
101
  6
Continuous
 62
     7
370
    30
100
AcDbLine
 10
97.138636
 20
78.085227
 30
0.0
 11
98.677361
 21
78.336556
 31
0.0
  0
LINE
  5
3FA
330
1F
100
AcDbEntity
  8
101
  6
Continuous
 62
     7
370
    30
100
AcDbLine
 10
96.340909
 20
77.502273
 30
0.0
 11
97.138636
 21
78.085227
 31
0.0
  0
LINE
  5
3FB
330
1F
100
AcDbEntity
  8
101
  6
Continuous
 62
     7
370
    30
100
AcDbLine
 10
101.863636
 20
82.380682
 30
0.0
 11
101.8728
 21
80.699514
 31
0.0
  0
LINE
  5
3FC
330
1F
100
AcDbEntity
  8
101
  6
Continuous
 62
     7
370
    30
100
AcDbLine
 10
96.954545
 20
81.644318
 30
0.0
 11
97.169318
 21
80.539773
 31
0.0
  0
LINE
  5
3FD
330
1F
100
AcDbEntity
  8
101
  6
Continuous
 62
     7
370
    30
100
AcDbLine
 10
174.579545
 20
71.028409
 30
0.0
 11
175.315909
 21
70.353409
 31
0.0
  0
LINE
  5
3FE
330
1F
100
AcDbEntity
  8
101
  6
Continuous
 62
     7
370
    30
100
AcDbLine
 10
173.536364
 20
72.132955
 30
0.0
 11
174.579545
 21
71.028409
 31
0.0
  0
LINE
  5
3FF
330
1F
100
AcDbEntity
  8
101
  6
Continuous
 62
     7
370
    30
100
AcDbLine
 10
172.309091
 20
72.685227
 30
0.0
 11
173.536364
 21
72.132955
 31
0.0
  0
LINE
  5
400
330
1F
100
AcDbEntity
  8
101
  6
Continuous
 62
     7
370
    30
100
AcDbLine
 10
170.222727
 20
73.728409
 30
0.0
 11
172.309091
 21
72.685227
 31
0.0
  0
LINE
  5
401
330
1F
100
AcDbEntity
  8
101
  6
Continuous
 62
     7
370
    30
100
AcDbLine
 10
167.215909
 20
74.403409
 30
0.0
 11
170.222727
 21
73.728409
 31
0.0
  0
LINE
  5
402
330
1F
100
AcDbEntity
  8
101
  6
Continuous
 62
     7
370
    30
100
AcDbLine
 10
161.447727
 20
75.753409
 30
0.0
 11
167.215909
 21
74.403409
 31
0.0
  0
LINE
  5
403
330
1F
100
AcDbEntity
  8
101
  6
Continuous
 62
     7
370
    30
100
AcDbLine
 10
155.127273
 20
76.551136
 30
0.0
 11
161.447727
 21
75.753409
 31
0.0
  0
LINE
  5
404
330
1F
100
AcDbEntity
  8
101
  6
Continuous
 62
     7
370
    30
100
AcDbLine
 10
147.947727
 20
77.042045
 30
0.0
 11
155.127273
 21
76.551136
 31
0.0
  0
LINE
  5
405
330
1F
100
AcDbEntity
  8
101
  6
Continuous
 62
     7
370
    30
100
AcDbLine
 10
139.295455
 20
77.839773
 30
0.0
 11
147.947727
 21
77.042045
 31
0.0
  0
LINE
  5
406
330
1F
100
AcDbEntity
  8
101
  6
Continuous
 62
     7
370
    30
100
AcDbLine
 10
132.975
 20
78.207955
 30
0.0
 11
139.295455
 21
77.839773
 31
0.0
  0
LINE
  5
407
330
1F
100
AcDbEntity
  8
101
  6
Continuous
 62
     7
370
    30
100
AcDbLine
 10
125.918182
 20
78.453409
 30
0.0
 11
132.975
 21
78.207955
 31
0.0
  0
LINE
  5
408
330
1F
100
AcDbEntity
  8
101
  6
Continuous
 62
     7
370
    30
100
AcDbLine
 10
118.8
 20
78.576136
 30
0.0
 11
125.918182
 21
78.453409
 31
0.0
  0
LINE
  5
409
330
1F
100
AcDbEntity
  8
101
  6
Continuous
 62
     7
370
    30
100
AcDbLine
 10
111.129545
 20
78.6375
 30
0.0
 11
118.8
 21
78.576136
 31
0.0
  0
LINE
  5
40A
330
1F
100
AcDbEntity
  8
101
  6
Continuous
 62
     7
370
    30
100
AcDbLine
 10
101.863636
 20
78.330682
 30
0.0
 11
111.129545
 21
78.6375
 31
0.0
  0
LINE
  5
40B
330
1F
100
AcDbEntity
  8
101
  6
Continuous
 62
     7
370
    30
100
AcDbLine
 10
98.918182
 20
78.330682
 30
0.0
 11
101.863636
 21
78.330682
 31
0.0
  0
LINE
  5
40C
330
1F
100
AcDbEntity
  8
101
  6
Continuous
 62
     7
370
    30
100
AcDbLine
 10
96.402273
 20
78.392045
 30
0.0
 11
98.918182
 21
78.330682
 31
0.0
  0
LINE
  5
40D
330
1F
100
AcDbEntity
  8
101
  6
Continuous
 62
     7
370
    30
100
AcDbLine
 10
90.634091
 20
78.207955
 30
0.0
 11
96.402273
 21
78.392045
 31
0.0
  0
LINE
  5
40E
330
1F
100
AcDbEntity
  8
101
  6
Continuous
 62
     7
370
    30
100
AcDbLine
 10
84.436364
 20
77.9625
 30
0.0
 11
90.634091
 21
78.207955
 31
0.0
  0
LINE
  5
40F
330
1F
100
AcDbEntity
  8
101
  6
Continuous
 62
     7
370
    30
100
AcDbLine
 10
77.318182
 20
77.410227
 30
0.0
 11
84.436364
 21
77.9625
 31
0.0
  0
LINE
  5
410
330
1F
100
AcDbEntity
  8
101
  6
Continuous
 62
     7
370
    30
100
AcDbLine
 10
67.745455
 20
76.673864
 30
0.0
 11
77.318182
 21
77.410227
 31
0.0
  0
LINE
  5
411
330
1F
100
AcDbEntity
  8
101
  6
Continuous
 62
     7
370
    30
100
AcDbLine
 10
61.179545
 20
76.121591
 30
0.0
 11
67.745455
 21
76.673864
 31
0.0
  0
LINE
  5
412
330
1F
100
AcDbEntity
  8
101
  6
Continuous
 62
     7
370
    30
100
AcDbLine
 10
54.859091
 20
75.507955
 30
0.0
 11
61.179545
 21
76.121591
 31
0.0
  0
LINE
  5
413
330
1F
100
AcDbEntity
  8
101
  6
Continuous
 62
     7
370
    30
100
AcDbLine
 10
49.95
 20
74.526136
 30
0.0
 11
54.859091
 21
75.507955
 31
0.0
  0
LINE
  5
414
330
1F
100
AcDbEntity
  8
101
  6
Continuous
 62
     7
370
    30
100
AcDbLine
 10
46.329545
 20
73.2375
 30
0.0
 11
49.95
 21
74.526136
 31
0.0
  0
LINE
  5
415
330
1F
100
AcDbEntity
  8
101
  6
Continuous
 62
     7
370
    30
100
AcDbLine
 10
43.445455
 20
71.457955
 30
0.0
 11
46.329545
 21
73.2375
 31
0.0
  0
LINE
  5
416
330
1F
100
AcDbEntity
  8
101
  6
Continuous
 62
     7
370
    30
100
AcDbLine
 10
41.345981
 20
69.609671
 30
0.0
 11
43.445455
 21
71.457955
 31
0.0
  0
LINE
  5
417
330
1F
100
AcDbEntity
  8
101
  6
Continuous
 62
     7
370
    30
100
AcDbLine
 10
55.718182
 20
72.255682
 30
0.0
 11
53.539773
 21
71.120455
 31
0.0
  0
LINE
  5
418
330
1F
100
AcDbEntity
  8
101
  6
Continuous
 62
     7
370
    30
100
AcDbLine
 10
60.320455
 20
73.421591
 30
0.0
 11
55.718182
 21
72.255682
 31
0.0
  0
LINE
  5
419
330
1F
100
AcDbEntity
  8
101
  6
Continuous
 62
     7
370
    30
100
AcDbLine
 10
66.272727
 20
74.526136
 30
0.0
 11
60.320455
 21
73.421591
 31
0.0
  0
LINE
  5
41A
330
1F
100
AcDbEntity
  8
101
  6
Continuous
 62
     7
370
    30
100
AcDbLine
 10
71.672727
 20
75.201136
 30
0.0
 11
66.272727
 21
74.526136
 31
0.0
  0
LINE
  5
41B
330
1F
100
AcDbEntity
  8
101
  6
Continuous
 62
     7
370
    30
100
AcDbLine
 10
77.870455
 20
75.753409
 30
0.0
 11
71.672727
 21
75.201136
 31
0.0
  0
LINE
  5
41C
330
1F
100
AcDbEntity
  8
101
  6
Continuous
 62
     7
370
    30
100
AcDbLine
 10
86.768182
 20
76.305682
 30
0.0
 11
77.870455
 21
75.753409
 31
0.0
  0
LINE
  5
41D
330
1F
100
AcDbEntity
  8
101
  6
Continuous
 62
     7
370
    30
100
AcDbLine
 10
96.218182
 20
76.673864
 30
0.0
 11
86.768182
 21
76.305682
 31
0.0
  0
LINE
  5
41E
330
1F
100
AcDbEntity
  8
101
  6
Continuous
 62
     7
370
    30
100
AcDbLine
 10
106.404545
 20
77.042045
 30
0.0
 11
102.047727
 21
76.735227
 31
0.0
  0
LINE
  5
41F
330
1F
100
AcDbEntity
  8
101
  6
Continuous
 62
     7
370
    30
100
AcDbLine
 10
115.793182
 20
76.673864
 30
0.0
 11
106.404545
 21
77.042045
 31
0.0
  0
LINE
  5
420
330
1F
100
AcDbEntity
  8
101
  6
Continuous
 62
     7
370
    30
100
AcDbLine
 10
125.059091
 20
76.6125
 30
0.0
 11
115.793182
 21
76.673864
 31
0.0
  0
LINE
  5
421
330
1F
100
AcDbEntity
  8
101
  6
Continuous
 62
     7
370
    30
100
AcDbLine
 10
149.481818
 20
74.955682
 30
0.0
 11
136.411364
 21
76.121591
 31
0.0
  0
LINE
  5
422
330
1F
100
AcDbEntity
  8
101
  6
Continuous
 62
     7
370
    30
100
AcDbLine
 10
155.986364
 20
73.851136
 30
0.0
 11
149.481818
 21
74.955682
 31
0.0
  0
LINE
  5
423
330
1F
100
AcDbEntity
  8
101
  6
Continuous
 62
     7
370
    30
100
AcDbLine
 10
159.852273
 20
72.807955
 30
0.0
 11
155.986364
 21
73.851136
 31
0.0
  0
LINE
  5
424
330
1F
100
AcDbEntity
  8
101
  6
Continuous
 62
     7
370
    30
100
AcDbLine
 10
163.779545
 20
71.151136
 30
0.0
 11
159.852273
 21
72.807955
 31
0.0
  0
LINE
  5
425
330
1F
100
AcDbEntity
  8
101
  6
Continuous
 62
     7
370
    30
100
AcDbLine
 10
164.822727
 20
70.476136
 30
0.0
 11
163.779545
 21
71.151136
 31
0.0
  0
LINE
  5
426
330
1F
100
AcDbEntity
  8
101
  6
Continuous
 62
     7
370
    30
100
AcDbLine
 10
164.7
 20
69.064773
 30
0.0
 11
164.822727
 21
70.476136
 31
0.0
  0
LINE
  5
427
330
1F
100
AcDbEntity
  8
101
  6
Continuous
 62
     7
370
    30
100
AcDbLine
 10
162.613636
 20
67.223864
 30
0.0
 11
164.7
 21
69.064773
 31
0.0
  0
LINE
  5
428
330
1F
100
AcDbEntity
  8
101
  6
Continuous
 62
     7
370
    30
100
AcDbLine
 10
160.404545
 20
66.242045
 30
0.0
 11
162.613636
 21
67.223864
 31
0.0
  0
LINE
  5
429
330
1F
100
AcDbEntity
  8
101
  6
Continuous
 62
     7
370
    30
100
AcDbLine
 10
162.368182
 20
69.8625
 30
0.0
 11
163.779545
 21
71.151136
 31
0.0
  0
LINE
  5
42A
330
1F
100
AcDbEntity
  8
101
  6
Continuous
 62
     7
370
    30
100
AcDbLine
 10
160.343182
 20
69.555682
 30
0.0
 11
162.368182
 21
69.8625
 31
0.0
  0
LINE
  5
42B
330
1F
100
AcDbEntity
  8
101
  6
Continuous
 62
     7
370
    30
100
AcDbLine
 10
164.209091
 20
64.217045
 30
0.0
 11
167.432038
 21
65.069039
 31
0.0
  0
LINE
  5
42C
330
1F
100
AcDbEntity
  8
101
  6
Continuous
 62
     7
370
    30
100
AcDbLine
 10
160.343182
 20
63.726136
 30
0.0
 11
164.209091
 21
64.217045
 31
0.0
  0
LINE
  5
42D
330
1F
100
AcDbEntity
  8
101
  6
Continuous
 62
     7
370
    30
100
AcDbLine
 10
174.211364
 20
69.1875
 30
0.0
 11
171.910227
 21
67.377273
 31
0.0
  0
LINE
  5
42E
330
1F
100
AcDbEntity
  8
101
  6
Continuous
 62
     7
370
    30
100
AcDbLine
 10
175.315909
 20
70.353409
 30
0.0
 11
174.211364
 21
69.1875
 31
0.0
  0
LINE
  5
42F
330
1F
100
AcDbEntity
  8
101
  6
Continuous
 62
     7
370
    30
100
AcDbLine
 10
175.254545
 20
72.255682
 30
0.0
 11
175.315909
 21
70.353409
 31
0.0
  0
LINE
  5
430
330
1F
100
AcDbEntity
  8
101
  6
Continuous
 62
     7
370
    30
100
AcDbLine
 10
174.334091
 20
73.667045
 30
0.0
 11
175.254545
 21
72.255682
 31
0.0
  0
LINE
  5
431
330
1F
100
AcDbEntity
  8
101
  6
Continuous
 62
     7
370
    30
100
AcDbLine
 10
172.370455
 20
75.078409
 30
0.0
 11
174.334091
 21
73.667045
 31
0.0
  0
LINE
  5
432
330
1F
100
AcDbEntity
  8
101
  6
Continuous
 62
     7
370
    30
100
AcDbLine
 10
169.977273
 20
76.182955
 30
0.0
 11
172.370455
 21
75.078409
 31
0.0
  0
LINE
  5
433
330
1F
100
AcDbEntity
  8
101
  6
Continuous
 62
     7
370
    30
100
AcDbLine
 10
167.4
 20
76.888636
 30
0.0
 11
169.977273
 21
76.182955
 31
0.0
  0
LINE
  5
434
330
1F
100
AcDbEntity
  8
101
  6
Continuous
 62
     7
370
    30
100
AcDbLine
 10
161.938636
 20
78.207955
 30
0.0
 11
167.4
 21
76.888636
 31
0.0
  0
LINE
  5
435
330
1F
100
AcDbEntity
  8
101
  6
Continuous
 62
     7
370
    30
100
AcDbLine
 10
156.354545
 20
78.760227
 30
0.0
 11
161.938636
 21
78.207955
 31
0.0
  0
LINE
  5
436
330
1F
100
AcDbEntity
  8
101
  6
Continuous
 62
     7
370
    30
100
AcDbLine
 10
146.413636
 20
79.926136
 30
0.0
 11
156.354545
 21
78.760227
 31
0.0
  0
LINE
  5
437
330
1F
100
AcDbEntity
  8
101
  6
Continuous
 62
     7
370
    30
100
AcDbLine
 10
135.061364
 20
80.723864
 30
0.0
 11
146.413636
 21
79.926136
 31
0.0
  0
LINE
  5
438
330
1F
100
AcDbEntity
  8
101
  6
Continuous
 62
     7
370
    30
100
AcDbLine
 10
126.470455
 20
80.601136
 30
0.0
 11
135.061364
 21
80.723864
 31
0.0
  0
LINE
  5
439
330
1F
100
AcDbEntity
  8
101
  6
Continuous
 62
     7
370
    30
100
AcDbLine
 10
118.8
 20
80.6625
 30
0.0
 11
126.470455
 21
80.601136
 31
0.0
  0
LINE
  5
43A
330
1F
100
AcDbEntity
  8
101
  6
Continuous
 62
     7
370
    30
100
AcDbLine
 10
110.945455
 20
80.785227
 30
0.0
 11
118.8
 21
80.6625
 31
0.0
  0
LINE
  5
43B
330
1F
100
AcDbEntity
  8
101
  6
Continuous
 62
     7
370
    30
100
AcDbLine
 10
105.3
 20
80.815909
 30
0.0
 11
110.945455
 21
80.785227
 31
0.0
  0
LINE
  5
43C
330
1F
100
AcDbEntity
  8
101
  6
Continuous
 62
     7
370
    30
100
AcDbLine
 10
97.169318
 20
80.539773
 30
0.0
 11
105.3
 21
80.815909
 31
0.0
  0
LINE
  5
43D
330
1F
100
AcDbEntity
  8
101
  6
Continuous
 62
     7
370
    30
100
AcDbLine
 10
92.014773
 20
80.355682
 30
0.0
 11
97.169318
 21
80.539773
 31
0.0
  0
LINE
  5
43E
330
1F
100
AcDbEntity
  8
101
  6
Continuous
 62
     7
370
    30
100
AcDbLine
 10
84.804545
 20
80.110227
 30
0.0
 11
92.014773
 21
80.355682
 31
0.0
  0
LINE
  5
43F
330
1F
100
AcDbEntity
  8
101
  6
Continuous
 62
     7
370
    30
100
AcDbLine
 10
79.435227
 20
79.803409
 30
0.0
 11
84.804545
 21
80.110227
 31
0.0
  0
LINE
  5
440
330
1F
100
AcDbEntity
  8
101
  6
Continuous
 62
     7
370
    30
100
AcDbLine
 10
73.973864
 20
79.527273
 30
0.0
 11
79.435227
 21
79.803409
 31
0.0
  0
LINE
  5
441
330
1F
100
AcDbEntity
  8
101
  6
Continuous
 62
     7
370
    30
100
AcDbLine
 10
68.727273
 20
79.373864
 30
0.0
 11
73.973864
 21
79.527273
 31
0.0
  0
LINE
  5
442
330
1F
100
AcDbEntity
  8
101
  6
Continuous
 62
     7
370
    30
100
AcDbLine
 10
64.032955
 20
78.913636
 30
0.0
 11
68.727273
 21
79.373864
 31
0.0
  0
LINE
  5
443
330
1F
100
AcDbEntity
  8
101
  6
Continuous
 62
     7
370
    30
100
AcDbLine
 10
58.878409
 20
78.146591
 30
0.0
 11
64.032955
 21
78.913636
 31
0.0
  0
LINE
  5
444
330
1F
100
AcDbEntity
  8
101
  6
Continuous
 62
     7
370
    30
100
AcDbLine
 10
55.380682
 20
77.594318
 30
0.0
 11
58.878409
 21
78.146591
 31
0.0
  0
LINE
  5
445
330
1F
100
AcDbEntity
  8
101
  6
Continuous
 62
     7
370
    30
100
AcDbLine
 10
53.325
 20
77.2875
 30
0.0
 11
55.380682
 21
77.594318
 31
0.0
  0
LINE
  5
446
330
1F
100
AcDbEntity
  8
101
  6
Continuous
 62
     7
370
    30
100
AcDbLine
 10
50.502273
 20
76.704545
 30
0.0
 11
53.325
 21
77.2875
 31
0.0
  0
LINE
  5
447
330
1F
100
AcDbEntity
  8
101
  6
Continuous
 62
     7
370
    30
100
AcDbLine
 10
46.206818
 20
75.231818
 30
0.0
 11
50.502273
 21
76.704545
 31
0.0
  0
LINE
  5
448
330
1F
100
AcDbEntity
  8
101
  6
Continuous
 62
     7
370
    30
100
AcDbLine
 10
45.685227
 20
74.863636
 30
0.0
 11
46.206818
 21
75.231818
 31
0.0
  0
LINE
  5
449
330
1F
100
AcDbEntity
  8
101
  6
Continuous
 62
     7
370
    30
100
AcDbLine
 10
43.230682
 20
73.575
 30
0.0
 11
45.685227
 21
74.863636
 31
0.0
  0
LINE
  5
44A
330
1F
100
AcDbEntity
  8
101
  6
Continuous
 62
     7
370
    30
100
AcDbLine
 10
41.144318
 20
72.040909
 30
0.0
 11
43.230682
 21
73.575
 31
0.0
  0
LINE
  5
44B
330
1F
100
AcDbEntity
  8
101
  6
Continuous
 62
     7
370
    30
100
AcDbLine
 10
41.082955
 20
70.077273
 30
0.0
 11
41.144318
 21
72.040909
 31
0.0
  0
LINE
  5
44C
330
1F
100
AcDbEntity
  8
101
  6
Continuous
 62
     7
370
    30
100
AcDbLine
 10
41.635227
 20
69.095455
 30
0.0
 11
41.082955
 21
70.077273
 31
0.0
  0
LINE
  5
44D
330
1F
100
AcDbEntity
  8
101
  6
Continuous
 62
     7
370
    30
100
AcDbLine
 10
43.5375
 20
67.5
 30
0.0
 11
41.635227
 21
69.095455
 31
0.0
  0
LINE
  5
44E
330
1F
100
AcDbEntity
  8
101
  6
Continuous
 62
     7
370
    30
100
AcDbLine
 10
45.501136
 20
66.334091
 30
0.0
 11
43.5375
 21
67.5
 31
0.0
  0
LINE
  5
44F
330
1F
100
AcDbEntity
  8
101
  6
Continuous
 62
     7
370
    30
100
AcDbLine
 10
52.251136
 20
70.445455
 30
0.0
 11
53.355682
 21
69.402273
 31
0.0
  0
LINE
  5
450
330
1F
100
AcDbEntity
  8
101
  6
Continuous
 62
     7
370
    30
100
AcDbLine
 10
52.9875
 20
67.070455
 30
0.0
 11
53.6625
 21
66.763636
 31
0.0
  0
LINE
  5
451
330
1F
100
AcDbEntity
  8
101
  6
Continuous
 62
     7
370
    30
100
AcDbLine
 10
51.882955
 20
68.052273
 30
0.0
 11
52.9875
 21
67.070455
 31
0.0
  0
LINE
  5
452
330
1F
100
AcDbEntity
  8
101
  6
Continuous
 62
     7
370
    30
100
AcDbLine
 10
51.6375
 20
69.340909
 30
0.0
 11
51.882955
 21
68.052273
 31
0.0
  0
LINE
  5
453
330
1F
100
AcDbEntity
  8
101
  6
Continuous
 62
     7
370
    30
100
AcDbLine
 10
52.251136
 20
70.445455
 30
0.0
 11
51.6375
 21
69.340909
 31
0.0
  0
LINE
  5
454
330
1F
100
AcDbEntity
  8
101
  6
Continuous
 62
     7
370
    30
100
AcDbLine
 10
53.539773
 20
71.120455
 30
0.0
 11
52.251136
 21
70.445455
 31
0.0
  0
LINE
  5
455
330
1F
100
AcDbEntity
  8
101
  6
Continuous
 62
     7
370
    30
100
AcDbLine
 10
50.817419
 20
63.334516
 30
0.0
 11
53.907955
 21
61.977273
 31
0.0
  0
LINE
  5
456
330
1F
100
AcDbEntity
  8
101
  6
Continuous
 62
     7
370
    30
100
AcDbLine
 10
45.930682
 20
69.156818
 30
0.0
 11
45.501136
 21
68.665909
 31
0.0
  0
LINE
  5
457
330
1F
100
AcDbEntity
  8
101
  6
Continuous
 62
     7
370
    30
100
AcDbLine
 10
47.342045
 20
69.156818
 30
0.0
 11
45.930682
 21
69.156818
 31
0.0
  0
LINE
  5
458
330
1F
100
AcDbEntity
  8
101
  6
Continuous
 62
     7
370
    30
100
AcDbLine
 10
48.569318
 20
68.359091
 30
0.0
 11
47.342045
 21
69.156818
 31
0.0
  0
LINE
  5
459
330
1F
100
AcDbEntity
  8
101
  6
Continuous
 62
     7
370
    30
100
AcDbLine
 10
49.980682
 20
67.193182
 30
0.0
 11
48.569318
 21
68.359091
 31
0.0
  0
LINE
  5
45A
330
1F
100
AcDbEntity
  8
101
  6
Continuous
 62
     7
370
    30
100
AcDbLine
 10
50.901136
 20
65.720455
 30
0.0
 11
49.980682
 21
67.193182
 31
0.0
  0
LINE
  5
45B
330
1F
100
AcDbEntity
  8
101
  6
Continuous
 62
     7
370
    30
100
AcDbLine
 10
50.778409
 20
62.222727
 30
0.0
 11
50.901136
 21
65.720455
 31
0.0
  0
LINE
  5
45C
330
1F
100
AcDbEntity
  8
101
  6
Continuous
 62
     7
370
    30
100
AcDbLine
 10
50.226136
 20
61.977273
 30
0.0
 11
50.778409
 21
62.222727
 31
0.0
  0
LINE
  5
45D
330
1F
100
AcDbEntity
  8
101
  6
Continuous
 62
     7
370
    30
100
AcDbLine
 10
50.226136
 20
56.884091
 30
0.0
 11
50.226136
 21
61.977273
 31
0.0
  0
LINE
  5
45E
330
1F
100
AcDbEntity
  8
101
  6
Continuous
 62
     7
370
    30
100
AcDbLine
 10
50.778409
 20
50.379545
 30
0.0
 11
50.226136
 21
56.884091
 31
0.0
  0
LINE
  5
45F
330
1F
100
AcDbEntity
  8
101
  6
Continuous
 62
     7
370
    30
100
AcDbLine
 10
51.882955
 20
43.506818
 30
0.0
 11
50.778409
 21
50.379545
 31
0.0
  0
LINE
  5
460
330
1F
100
AcDbEntity
  8
101
  6
Continuous
 62
     7
370
    30
100
AcDbLine
 10
54.214773
 20
35.038636
 30
0.0
 11
51.882955
 21
43.506818
 31
0.0
  0
LINE
  5
461
330
1F
100
AcDbEntity
  8
101
  6
Continuous
 62
     7
370
    30
100
AcDbLine
 10
57.651136
 20
27.061364
 30
0.0
 11
54.214773
 21
35.038636
 31
0.0
  0
LINE
  5
462
330
1F
100
AcDbEntity
  8
101
  6
Continuous
 62
     7
370
    30
100
AcDbLine
 10
61.578409
 20
20.556818
 30
0.0
 11
57.651136
 21
27.061364
 31
0.0
  0
LINE
  5
463
330
1F
100
AcDbEntity
  8
101
  6
Continuous
 62
     7
370
    30
100
AcDbLine
 10
65.996591
 20
15.034091
 30
0.0
 11
61.578409
 21
20.556818
 31
0.0
  0
LINE
  5
464
330
1F
100
AcDbEntity
  8
101
  6
Continuous
 62
     7
370
    30
100
AcDbLine
 10
71.2125
 20
9.634091
 30
0.0
 11
65.996591
 21
15.034091
 31
0.0
  0
LINE
  5
465
330
1F
100
AcDbEntity
  8
101
  6
Continuous
 62
     7
370
    30
100
AcDbLine
 10
76.244318
 20
5.215909
 30
0.0
 11
71.2125
 21
9.634091
 31
0.0
  0
LINE
  5
466
330
1F
100
AcDbEntity
  8
101
  6
Continuous
 62
     7
370
    30
100
AcDbLine
 10
82.442045
 20
1.288636
 30
0.0
 11
76.244318
 21
5.215909
 31
0.0
  0
LINE
  5
467
330
1F
100
AcDbEntity
  8
101
  6
Continuous
 62
     7
370
    30
100
AcDbLine
 10
90.1125
 20
-2.086364
 30
0.0
 11
82.442045
 21
1.288636
 31
0.0
  0
LINE
  5
468
330
1F
100
AcDbEntity
  8
101
  6
Continuous
 62
     7
370
    30
100
AcDbLine
 10
96.003409
 20
-4.05
 30
0.0
 11
90.1125
 21
-2.086364
 31
0.0
  0
LINE
  5
469
330
1F
100
AcDbEntity
  8
101
  6
Continuous
 62
     7
370
    30
100
AcDbLine
 10
101.403409
 20
-5.0625
 30
0.0
 11
96.003409
 21
-4.05
 31
0.0
  0
LINE
  5
46A
330
1F
100
AcDbEntity
  8
101
  6
Continuous
 62
     7
370
    30
100
AcDbLine
 10
104.318182
 20
-5.277273
 30
0.0
 11
101.403409
 21
-5.0625
 31
0.0
  0
LINE
  5
46B
330
1F
100
AcDbEntity
  8
101
  6
Continuous
 62
     7
370
    30
100
AcDbLine
 10
112.909091
 20
-5.0625
 30
0.0
 11
111.436364
 21
-5.185227
 31
0.0
  0
LINE
  5
46C
330
1F
100
AcDbEntity
  8
101
  6
Continuous
 62
     7
370
    30
100
AcDbLine
 10
116.1
 20
-4.817045
 30
0.0
 11
112.909091
 21
-5.0625
 31
0.0
  0
LINE
  5
46D
330
1F
100
AcDbEntity
  8
101
  6
Continuous
 62
     7
370
    30
100
AcDbLine
 10
119.904545
 20
-3.896591
 30
0.0
 11
116.1
 21
-4.817045
 31
0.0
  0
LINE
  5
46E
330
1F
100
AcDbEntity
  8
101
  6
Continuous
 62
     7
370
    30
100
AcDbLine
 10
123.525
 20
-2.853409
 30
0.0
 11
119.904545
 21
-3.896591
 31
0.0
  0
LINE
  5
46F
330
1F
100
AcDbEntity
  8
101
  6
Continuous
 62
     7
370
    30
100
AcDbLine
 10
127.513636
 20
-1.442045
 30
0.0
 11
123.525
 21
-2.853409
 31
0.0
  0
LINE
  5
470
330
1F
100
AcDbEntity
  8
101
  6
Continuous
 62
     7
370
    30
100
AcDbLine
 10
131.993182
 20
0.582955
 30
0.0
 11
127.513636
 21
-1.442045
 31
0.0
  0
LINE
  5
471
330
1F
100
AcDbEntity
  8
101
  6
Continuous
 62
     7
370
    30
100
AcDbLine
 10
136.043182
 20
2.792045
 30
0.0
 11
131.993182
 21
0.582955
 31
0.0
  0
LINE
  5
472
330
1F
100
AcDbEntity
  8
101
  6
Continuous
 62
     7
370
    30
100
AcDbLine
 10
139.479545
 20
5.0625
 30
0.0
 11
136.043182
 21
2.792045
 31
0.0
  0
LINE
  5
473
330
1F
100
AcDbEntity
  8
101
  6
Continuous
 62
     7
370
    30
100
AcDbLine
 10
143.468182
 20
8.007955
 30
0.0
 11
139.479545
 21
5.0625
 31
0.0
  0
LINE
  5
474
330
1F
100
AcDbEntity
  8
101
  6
Continuous
 62
     7
370
    30
100
AcDbLine
 10
146.597727
 20
10.646591
 30
0.0
 11
143.468182
 21
8.007955
 31
0.0
  0
LINE
  5
475
330
1F
100
AcDbEntity
  8
101
  6
Continuous
 62
     7
370
    30
100
AcDbLine
 10
149.788636
 20
13.960227
 30
0.0
 11
146.597727
 21
10.646591
 31
0.0
  0
LINE
  5
476
330
1F
100
AcDbEntity
  8
101
  6
Continuous
 62
     7
370
    30
100
AcDbLine
 10
152.243182
 20
16.476136
 30
0.0
 11
149.788636
 21
13.960227
 31
0.0
  0
LINE
  5
477
330
1F
100
AcDbEntity
  8
101
  6
Continuous
 62
     7
370
    30
100
AcDbLine
 10
155.372727
 20
20.280682
 30
0.0
 11
152.243182
 21
16.476136
 31
0.0
  0
LINE
  5
478
330
1F
100
AcDbEntity
  8
101
  6
Continuous
 62
     7
370
    30
100
AcDbLine
 10
157.704545
 20
24.085227
 30
0.0
 11
155.372727
 21
20.280682
 31
0.0
  0
LINE
  5
479
330
1F
100
AcDbEntity
  8
101
  6
Continuous
 62
     7
370
    30
100
AcDbLine
 10
159.913636
 20
27.460227
 30
0.0
 11
157.704545
 21
24.085227
 31
0.0
  0
LINE
  5
47A
330
1F
100
AcDbEntity
  8
101
  6
Continuous
 62
     7
370
    30
100
AcDbLine
 10
162.122727
 20
32.246591
 30
0.0
 11
159.913636
 21
27.460227
 31
0.0
  0
LINE
  5
47B
330
1F
100
AcDbEntity
  8
101
  6
Continuous
 62
     7
370
    30
100
AcDbLine
 10
164.7
 20
38.751136
 30
0.0
 11
162.122727
 21
32.246591
 31
0.0
  0
LINE
  5
47C
330
1F
100
AcDbEntity
  8
101
  6
Continuous
 62
     7
370
    30
100
AcDbLine
 10
166.05
 20
44.703409
 30
0.0
 11
164.7
 21
38.751136
 31
0.0
  0
LINE
  5
47D
330
1F
100
AcDbEntity
  8
101
  6
Continuous
 62
     7
370
    30
100
AcDbLine
 10
166.970455
 20
49.428409
 30
0.0
 11
166.05
 21
44.703409
 31
0.0
  0
LINE
  5
47E
330
1F
100
AcDbEntity
  8
101
  6
Continuous
 62
     7
370
    30
100
AcDbLine
 10
167.461364
 20
53.417045
 30
0.0
 11
166.970455
 21
49.428409
 31
0.0
  0
LINE
  5
47F
330
1F
100
AcDbEntity
  8
101
  6
Continuous
 62
     7
370
    30
100
AcDbLine
 10
167.4
 20
56.792045
 30
0.0
 11
167.461364
 21
53.417045
 31
0.0
  0
LINE
  5
480
330
1F
100
AcDbEntity
  8
101
  6
Continuous
 62
     7
370
    30
100
AcDbLine
 10
167.522727
 20
63.910227
 30
0.0
 11
167.4
 21
56.792045
 31
0.0
  0
LINE
  5
481
330
1F
100
AcDbEntity
  8
101
  6
Continuous
 62
     7
370
    30
100
AcDbLine
 10
167.246591
 20
67.438636
 30
0.0
 11
167.522727
 21
63.910227
 31
0.0
  0
LINE
  5
482
330
1F
100
AcDbEntity
  8
101
  6
Continuous
 62
     7
370
    30
100
AcDbLine
 10
167.369318
 20
69.402273
 30
0.0
 11
167.246591
 21
67.438636
 31
0.0
  0
LINE
  5
483
330
1F
100
AcDbEntity
  8
101
  6
Continuous
 62
     7
370
    30
100
AcDbLine
 10
168.167045
 20
70.322727
 30
0.0
 11
167.369318
 21
69.402273
 31
0.0
  0
LINE
  5
484
330
1F
100
AcDbEntity
  8
101
  6
Continuous
 62
     7
370
    30
100
AcDbLine
 10
169.578409
 20
70.353409
 30
0.0
 11
168.167045
 21
70.322727
 31
0.0
  0
LINE
  5
485
330
1F
100
AcDbEntity
  8
101
  6
Continuous
 62
     7
370
    30
100
AcDbLine
 10
171.388636
 20
70.292045
 30
0.0
 11
169.578409
 21
70.353409
 31
0.0
  0
LINE
  5
486
330
1F
100
AcDbEntity
  8
101
  6
Continuous
 62
     7
370
    30
100
AcDbLine
 10
171.971591
 20
69.402273
 30
0.0
 11
171.388636
 21
70.292045
 31
0.0
  0
LINE
  5
487
330
1F
100
AcDbEntity
  8
101
  6
Continuous
 62
     7
370
    30
100
AcDbLine
 10
171.910227
 20
67.377273
 30
0.0
 11
171.971591
 21
69.402273
 31
0.0
  0
LINE
  5
488
330
1F
100
AcDbEntity
  8
101
  6
Continuous
 62
     7
370
    30
100
AcDbLine
 10
172.094318
 20
55.472727
 30
0.0
 11
171.910227
 21
67.377273
 31
0.0
  0
LINE
  5
489
330
1F
100
AcDbEntity
  8
101
  6
Continuous
 62
     7
370
    30
100
AcDbLine
 10
171.480682
 20
49.704545
 30
0.0
 11
172.094318
 21
55.472727
 31
0.0
  0
LINE
  5
48A
330
1F
100
AcDbEntity
  8
101
  6
Continuous
 62
     7
370
    30
100
AcDbLine
 10
170.130682
 20
42.709091
 30
0.0
 11
171.480682
 21
49.704545
 31
0.0
  0
LINE
  5
48B
330
1F
100
AcDbEntity
  8
101
  6
Continuous
 62
     7
370
    30
100
AcDbLine
 10
167.798864
 20
34.609091
 30
0.0
 11
170.130682
 21
42.709091
 31
0.0
  0
LINE
  5
48C
330
1F
100
AcDbEntity
  8
101
  6
Continuous
 62
     7
370
    30
100
AcDbLine
 10
165.344318
 20
29.209091
 30
0.0
 11
167.798864
 21
34.609091
 31
0.0
  0
LINE
  5
48D
330
1F
100
AcDbEntity
  8
101
  6
Continuous
 62
     7
370
    30
100
AcDbLine
 10
162.092045
 20
22.704545
 30
0.0
 11
165.344318
 21
29.209091
 31
0.0
  0
LINE
  5
48E
330
1F
100
AcDbEntity
  8
101
  6
Continuous
 62
     7
370
    30
100
AcDbLine
 10
157.182955
 20
15.770455
 30
0.0
 11
162.092045
 21
22.704545
 31
0.0
  0
LINE
  5
48F
330
1F
100
AcDbEntity
  8
101
  6
Continuous
 62
     7
370
    30
100
AcDbLine
 10
153.255682
 20
11.597727
 30
0.0
 11
157.182955
 21
15.770455
 31
0.0
  0
LINE
  5
490
330
1F
100
AcDbEntity
  8
101
  6
Continuous
 62
     7
370
    30
100
AcDbLine
 10
149.144318
 20
7.118182
 30
0.0
 11
153.255682
 21
11.597727
 31
0.0
  0
LINE
  5
491
330
1F
100
AcDbEntity
  8
101
  6
Continuous
 62
     7
370
    30
100
AcDbLine
 10
144.7875
 20
3.252273
 30
0.0
 11
149.144318
 21
7.118182
 31
0.0
  0
LINE
  5
492
330
1F
100
AcDbEntity
  8
101
  6
Continuous
 62
     7
370
    30
100
AcDbLine
 10
139.3875
 20
-0.552273
 30
0.0
 11
144.7875
 21
3.252273
 31
0.0
  0
LINE
  5
493
330
1F
100
AcDbEntity
  8
101
  6
Continuous
 62
     7
370
    30
100
AcDbLine
 10
134.723864
 20
-3.068182
 30
0.0
 11
139.3875
 21
-0.552273
 31
0.0
  0
LINE
  5
494
330
1F
100
AcDbEntity
  8
101
  6
Continuous
 62
     7
370
    30
100
AcDbLine
 10
127.9125
 20
-6.075
 30
0.0
 11
134.723864
 21
-3.068182
 31
0.0
  0
LINE
  5
495
330
1F
100
AcDbEntity
  8
101
  6
Continuous
 62
     7
370
    30
100
AcDbLine
 10
118.707955
 20
-8.652273
 30
0.0
 11
127.9125
 21
-6.075
 31
0.0
  0
LINE
  5
496
330
1F
100
AcDbEntity
  8
101
  6
Continuous
 62
     7
370
    30
100
AcDbLine
 10
114.228409
 20
-9.265909
 30
0.0
 11
118.707955
 21
-8.652273
 31
0.0
  0
LINE
  5
497
330
1F
100
AcDbEntity
  8
101
  6
Continuous
 62
     7
370
    30
100
AcDbLine
 10
110.792045
 20
-9.756818
 30
0.0
 11
114.228409
 21
-9.265909
 31
0.0
  0
LINE
  5
498
330
1F
100
AcDbEntity
  8
101
  6
Continuous
 62
     7
370
    30
100
AcDbLine
 10
107.294318
 20
-9.756818
 30
0.0
 11
110.792045
 21
-9.756818
 31
0.0
  0
LINE
  5
499
330
1F
100
AcDbEntity
  8
101
  6
Continuous
 62
     7
370
    30
100
AcDbLine
 10
102.201136
 20
-9.572727
 30
0.0
 11
107.294318
 21
-9.756818
 31
0.0
  0
LINE
  5
49A
330
1F
100
AcDbEntity
  8
101
  6
Continuous
 62
     7
370
    30
100
AcDbLine
 10
98.151136
 20
-8.897727
 30
0.0
 11
102.201136
 21
-9.572727
 31
0.0
  0
LINE
  5
49B
330
1F
100
AcDbEntity
  8
101
  6
Continuous
 62
     7
370
    30
100
AcDbLine
 10
93.610227
 20
-7.854545
 30
0.0
 11
98.151136
 21
-8.897727
 31
0.0
  0
LINE
  5
49C
330
1F
100
AcDbEntity
  8
101
  6
Continuous
 62
     7
370
    30
100
AcDbLine
 10
87.903409
 20
-5.645455
 30
0.0
 11
93.610227
 21
-7.854545
 31
0.0
  0
LINE
  5
49D
330
1F
100
AcDbEntity
  8
101
  6
Continuous
 62
     7
370
    30
100
AcDbLine
 10
83.117045
 20
-3.436364
 30
0.0
 11
87.903409
 21
-5.645455
 31
0.0
  0
LINE
  5
49E
330
1F
100
AcDbEntity
  8
101
  6
Continuous
 62
     7
370
    30
100
AcDbLine
 10
78.882955
 20
-1.227273
 30
0.0
 11
83.117045
 21
-3.436364
 31
0.0
  0
LINE
  5
49F
330
1F
100
AcDbEntity
  8
101
  6
Continuous
 62
     7
370
    30
100
AcDbLine
 10
73.789773
 20
1.963636
 30
0.0
 11
78.882955
 21
-1.227273
 31
0.0
  0
LINE
  5
4A0
330
1F
100
AcDbEntity
  8
101
  6
Continuous
 62
     7
370
    30
100
AcDbLine
 10
69.678409
 20
5.215909
 30
0.0
 11
73.789773
 21
1.963636
 31
0.0
  0
LINE
  5
4A1
330
1F
100
AcDbEntity
  8
101
  6
Continuous
 62
     7
370
    30
100
AcDbLine
 10
64.523864
 20
10.615909
 30
0.0
 11
69.678409
 21
5.215909
 31
0.0
  0
LINE
  5
4A2
330
1F
100
AcDbEntity
  8
101
  6
Continuous
 62
     7
370
    30
100
AcDbLine
 10
59.860227
 20
15.893182
 30
0.0
 11
64.523864
 21
10.615909
 31
0.0
  0
LINE
  5
4A3
330
1F
100
AcDbEntity
  8
101
  6
Continuous
 62
     7
370
    30
100
AcDbLine
 10
54.582955
 20
23.993182
 30
0.0
 11
59.860227
 21
15.893182
 31
0.0
  0
LINE
  5
4A4
330
1F
100
AcDbEntity
  8
101
  6
Continuous
 62
     7
370
    30
100
AcDbLine
 10
50.655682
 20
32.584091
 30
0.0
 11
54.582955
 21
23.993182
 31
0.0
  0
LINE
  5
4A5
330
1F
100
AcDbEntity
  8
101
  6
Continuous
 62
     7
370
    30
100
AcDbLine
 10
48.446591
 20
39.947727
 30
0.0
 11
50.655682
 21
32.584091
 31
0.0
  0
LINE
  5
4A6
330
1F
100
AcDbEntity
  8
101
  6
Continuous
 62
     7
370
    30
100
AcDbLine
 10
46.482955
 20
47.188636
 30
0.0
 11
48.446591
 21
39.947727
 31
0.0
  0
LINE
  5
4A7
330
1F
100
AcDbEntity
  8
101
  6
Continuous
 62
     7
370
    30
100
AcDbLine
 10
45.501136
 20
54.797727
 30
0.0
 11
46.482955
 21
47.188636
 31
0.0
  0
LINE
  5
4A8
330
1F
100
AcDbEntity
  8
101
  6
Continuous
 62
     7
370
    30
100
AcDbLine
 10
45.501136
 20
68.665909
 30
0.0
 11
45.501136
 21
54.797727
 31
0.0
  0
LINE
  5
4A9
330
1F
100
AcDbEntity
  8
101
  6
Continuous
 62
     7
370
    30
100
AcDbLine
 10
53.232955
 20
93.456818
 30
0.0
 11
53.355682
 21
77.625
 31
0.0
  0
LINE
  5
4AA
330
1F
100
AcDbEntity
  8
101
  6
Continuous
 62
     7
370
    30
100
AcDbLine
 10
53.232955
 20
117.143182
 30
0.0
 11
53.232955
 21
93.456818
 31
0.0
  0
LINE
  5
4AB
330
1F
100
AcDbEntity
  8
101
  6
Continuous
 62
     7
370
    30
100
AcDbLine
 10
53.478409
 20
129.906818
 30
0.0
 11
53.232955
 21
117.143182
 31
0.0
  0
LINE
  5
4AC
330
1F
100
AcDbEntity
  8
101
  6
Continuous
 62
     7
370
    30
100
AcDbLine
 10
53.140909
 20
144.419318
 30
0.0
 11
53.478409
 21
129.906818
 31
0.0
  0
LINE
  5
4AD
330
1F
100
AcDbEntity
  8
101
  6
Continuous
 62
     7
370
    30
100
AcDbLine
 10
160.496591
 20
94.438636
 30
0.0
 11
160.619318
 21
78.361364
 31
0.0
  0
LINE
  5
4AE
330
1F
100
AcDbEntity
  8
101
  6
Continuous
 62
     7
370
    30
100
AcDbLine
 10
159.760227
 20
118.738636
 30
0.0
 11
160.496591
 21
94.438636
 31
0.0
  0
LINE
  5
4AF
330
1F
100
AcDbEntity
  8
101
  6
Continuous
 62
     7
370
    30
100
AcDbLine
 10
159.392045
 20
143.652273
 30
0.0
 11
159.760227
 21
118.738636
 31
0.0
  0
LINE
  5
4B0
330
1F
100
AcDbEntity
  8
101
  6
Continuous
 62
     7
370
    30
100
AcDbLine
 10
160.527273
 20
146.935227
 30
0.0
 11
159.392045
 21
143.652273
 31
0.0
  0
LINE
  5
4B1
330
1F
100
AcDbEntity
  8
101
  6
Continuous
 62
     7
370
    30
100
AcDbLine
 10
159.576136
 20
131.625
 30
0.0
 11
165.54815
 21
134.421101
 31
0.0
  0
LINE
  5
4B2
330
1F
100
AcDbEntity
  8
101
  6
Continuous
 62
     7
370
    30
100
AcDbLine
 10
159.545455
 20
132.514773
 30
0.0
 11
165.512724
 21
135.129613
 31
0.0
  0
LINE
  5
4B3
330
1F
100
AcDbEntity
  8
101
  6
Continuous
 62
     7
370
    30
100
AcDbLine
 10
166.080682
 20
142.486364
 30
0.0
 11
165.190909
 21
141.565909
 31
0.0
  0
LINE
  5
4B4
330
1F
100
AcDbEntity
  8
101
  6
Continuous
 62
     7
370
    30
100
AcDbLine
 10
167.246591
 20
142.854545
 30
0.0
 11
166.080682
 21
142.486364
 31
0.0
  0
LINE
  5
4B5
330
1F
100
AcDbEntity
  8
101
  6
Continuous
 62
     7
370
    30
100
AcDbLine
 10
168.228409
 20
142.885227
 30
0.0
 11
167.246591
 21
142.854545
 31
0.0
  0
LINE
  5
4B6
330
1F
100
AcDbEntity
  8
101
  6
Continuous
 62
     7
370
    30
100
AcDbLine
 10
169.271591
 20
142.517045
 30
0.0
 11
168.228409
 21
142.885227
 31
0.0
  0
LINE
  5
4B7
330
1F
100
AcDbEntity
  8
101
  6
Continuous
 62
     7
370
    30
100
AcDbLine
 10
169.915909
 20
142.148864
 30
0.0
 11
169.271591
 21
142.517045
 31
0.0
  0
LINE
  5
4B8
330
1F
100
AcDbEntity
  8
101
  6
Continuous
 62
     7
370
    30
100
AcDbLine
 10
170.222727
 20
141.320455
 30
0.0
 11
169.915909
 21
142.148864
 31
0.0
  0
LINE
  5
4B9
330
1F
100
AcDbEntity
  8
101
  6
Continuous
 62
     7
370
    30
100
AcDbLine
 10
170.345455
 20
125.488636
 30
0.0
 11
170.222727
 21
141.320455
 31
0.0
  0
LINE
  5
4BA
330
1F
100
AcDbEntity
  8
101
  6
Continuous
 62
     7
370
    30
100
AcDbLine
 10
171.327273
 20
101.188636
 30
0.0
 11
170.345455
 21
125.488636
 31
0.0
  0
LINE
  5
4BB
330
1F
100
AcDbEntity
  8
101
  6
Continuous
 62
     7
370
    30
100
AcDbLine
 10
171.940909
 20
75.415909
 30
0.0
 11
171.327273
 21
101.188636
 31
0.0
  0
LINE
  5
4BC
330
1F
100
AcDbEntity
  8
101
  6
Continuous
 62
     7
370
    30
100
AcDbLine
 10
167.277273
 20
91.738636
 30
0.0
 11
167.4
 21
76.888636
 31
0.0
  0
LINE
  5
4BD
330
1F
100
AcDbEntity
  8
101
  6
Continuous
 62
     7
370
    30
100
AcDbLine
 10
166.663636
 20
109.902273
 30
0.0
 11
167.277273
 21
91.738636
 31
0.0
  0
LINE
  5
4BE
330
1F
100
AcDbEntity
  8
101
  6
Continuous
 62
     7
370
    30
100
AcDbLine
 10
166.05
 20
124.384091
 30
0.0
 11
166.663636
 21
109.902273
 31
0.0
  0
LINE
  5
4BF
330
1F
100
AcDbEntity
  8
101
  6
Continuous
 62
     7
370
    30
100
AcDbLine
 10
165.190909
 20
141.565909
 30
0.0
 11
166.05
 21
124.384091
 31
0.0
  0
LINE
  5
4C0
330
1F
100
AcDbEntity
  8
101
  6
Continuous
 62
     7
370
    30
100
AcDbLine
 10
96.494318
 20
156.968182
 30
0.0
 11
95.727273
 21
155.955682
 31
0.0
  0
LINE
  5
4C1
330
1F
100
AcDbEntity
  8
101
  6
Continuous
 62
     7
370
    30
100
AcDbLine
 10
97.322727
 20
157.857955
 30
0.0
 11
96.494318
 21
156.968182
 31
0.0
  0
LINE
  5
4C2
330
1F
100
AcDbEntity
  8
101
  6
Continuous
 62
     7
370
    30
100
AcDbLine
 10
98.948864
 20
158.226136
 30
0.0
 11
97.322727
 21
157.857955
 31
0.0
  0
LINE
  5
4C3
330
1F
100
AcDbEntity
  8
101
  6
Continuous
 62
     7
370
    30
100
AcDbLine
 10
100.145455
 20
157.919318
 30
0.0
 11
98.948864
 21
158.226136
 31
0.0
  0
LINE
  5
4C4
330
1F
100
AcDbEntity
  8
101
  6
Continuous
 62
     7
370
    30
100
AcDbLine
 10
100.9125
 20
157.305682
 30
0.0
 11
100.145455
 21
157.919318
 31
0.0
  0
LINE
  5
4C5
330
1F
100
AcDbEntity
  8
101
  6
Continuous
 62
     7
370
    30
100
AcDbLine
 10
101.863636
 20
156.047727
 30
0.0
 11
100.9125
 21
157.305682
 31
0.0
  0
LINE
  5
4C6
330
1F
100
AcDbEntity
  8
101
  6
Continuous
 62
     7
370
    30
100
AcDbLine
 10
101.740909
 20
144.971591
 30
0.0
 11
101.863636
 21
156.047727
 31
0.0
  0
LINE
  5
4C7
330
1F
100
AcDbEntity
  8
101
  6
Continuous
 62
     7
370
    30
100
AcDbLine
 10
101.863636
 20
126.194318
 30
0.0
 11
101.740909
 21
144.971591
 31
0.0
  0
LINE
  5
4C8
330
1F
100
AcDbEntity
  8
101
  6
Continuous
 62
     7
370
    30
100
AcDbLine
 10
101.740909
 20
107.6625
 30
0.0
 11
101.863636
 21
126.194318
 31
0.0
  0
LINE
  5
4C9
330
1F
100
AcDbEntity
  8
101
  6
Continuous
 62
     7
370
    30
100
AcDbLine
 10
101.863636
 20
82.380682
 30
0.0
 11
101.740909
 21
107.6625
 31
0.0
  0
LINE
  5
4CA
330
1F
100
AcDbEntity
  8
101
  6
Continuous
 62
     7
370
    30
100
AcDbLine
 10
96.831818
 20
90.235227
 30
0.0
 11
96.954545
 21
81.644318
 31
0.0
  0
LINE
  5
4CB
330
1F
100
AcDbEntity
  8
101
  6
Continuous
 62
     7
370
    30
100
AcDbLine
 10
96.954545
 20
108.767045
 30
0.0
 11
96.831818
 21
90.235227
 31
0.0
  0
LINE
  5
4CC
330
1F
100
AcDbEntity
  8
101
  6
Continuous
 62
     7
370
    30
100
AcDbLine
 10
96.586364
 20
122.880682
 30
0.0
 11
96.954545
 21
108.767045
 31
0.0
  0
LINE
  5
4CD
330
1F
100
AcDbEntity
  8
101
  6
Continuous
 62
     7
370
    30
100
AcDbLine
 10
96.218182
 20
141.167045
 30
0.0
 11
96.586364
 21
122.880682
 31
0.0
  0
LINE
  5
4CE
330
1F
100
AcDbEntity
  8
101
  6
Continuous
 62
     7
370
    30
100
AcDbLine
 10
95.727273
 20
155.955682
 30
0.0
 11
96.218182
 21
141.167045
 31
0.0
  0
LINE
  5
4CF
330
1F
100
AcDbEntity
  8
101
  6
Continuous
 62
     7
370
    30
100
AcDbLine
 10
47.556818
 20
136.748864
 30
0.0
 11
46.881818
 21
136.043182
 31
0.0
  0
LINE
  5
4D0
330
1F
100
AcDbEntity
  8
101
  6
Continuous
 62
     7
370
    30
100
AcDbLine
 10
48.538636
 20
137.331818
 30
0.0
 11
47.556818
 21
136.748864
 31
0.0
  0
LINE
  5
4D1
330
1F
100
AcDbEntity
  8
101
  6
Continuous
 62
     7
370
    30
100
AcDbLine
 10
49.735227
 20
137.515909
 30
0.0
 11
48.538636
 21
137.331818
 31
0.0
  0
LINE
  5
4D2
330
1F
100
AcDbEntity
  8
101
  6
Continuous
 62
     7
370
    30
100
AcDbLine
 10
51.852273
 20
136.718182
 30
0.0
 11
49.735227
 21
137.515909
 31
0.0
  0
LINE
  5
4D3
330
1F
100
AcDbEntity
  8
101
  6
Continuous
 62
     7
370
    30
100
AcDbLine
 10
51.729545
 20
135.122727
 30
0.0
 11
51.852273
 21
136.718182
 31
0.0
  0
LINE
  5
4D4
330
1F
100
AcDbEntity
  8
101
  6
Continuous
 62
     7
370
    30
100
AcDbLine
 10
51.238636
 20
116.590909
 30
0.0
 11
51.729545
 21
135.122727
 31
0.0
  0
LINE
  5
4D5
330
1F
100
AcDbEntity
  8
101
  6
Continuous
 62
     7
370
    30
100
AcDbLine
 10
50.625
 20
98.672727
 30
0.0
 11
51.238636
 21
116.590909
 31
0.0
  0
LINE
  5
4D6
330
1F
100
AcDbEntity
  8
101
  6
Continuous
 62
     7
370
    30
100
AcDbLine
 10
50.502273
 20
76.704545
 30
0.0
 11
50.625
 21
98.672727
 31
0.0
  0
LINE
  5
4D7
330
1F
100
AcDbEntity
  8
101
  6
Continuous
 62
     7
370
    30
100
AcDbLine
 10
46.206818
 20
101.863636
 30
0.0
 11
46.206818
 21
75.231818
 31
0.0
  0
LINE
  5
4D8
330
1F
100
AcDbEntity
  8
101
  6
Continuous
 62
     7
370
    30
100
AcDbLine
 10
46.943182
 20
129.109091
 30
0.0
 11
46.206818
 21
101.863636
 31
0.0
  0
LINE
  5
4D9
330
1F
100
AcDbEntity
  8
101
  6
Continuous
 62
     7
370
    30
100
AcDbLine
 10
46.881818
 20
136.043182
 30
0.0
 11
46.943182
 21
129.109091
 31
0.0
  0
LINE
  5
4DA
330
1F
100
AcDbEntity
  8
101
  6
Continuous
 62
     7
370
    30
100
AcDbLine
 10
160.956818
 20
138.098864
 30
0.0
 11
159.422727
 21
137.025
 31
0.0
  0
LINE
  5
4DB
330
1F
100
AcDbEntity
  8
101
  6
Continuous
 62
     7
370
    30
100
AcDbLine
 10
162.214773
 20
139.479545
 30
0.0
 11
160.956818
 21
138.098864
 31
0.0
  0
LINE
  5
4DC
330
1F
100
AcDbEntity
  8
101
  6
Continuous
 62
     7
370
    30
100
AcDbLine
 10
163.104545
 20
141.320455
 30
0.0
 11
162.214773
 21
139.479545
 31
0.0
  0
LINE
  5
4DD
330
1F
100
AcDbEntity
  8
101
  6
Continuous
 62
     7
370
    30
100
AcDbLine
 10
163.196591
 20
142.670455
 30
0.0
 11
163.104545
 21
141.320455
 31
0.0
  0
LINE
  5
4DE
330
1F
100
AcDbEntity
  8
101
  6
Continuous
 62
     7
370
    30
100
AcDbLine
 10
162.889773
 20
144.081818
 30
0.0
 11
163.196591
 21
142.670455
 31
0.0
  0
LINE
  5
4DF
330
1F
100
AcDbEntity
  8
101
  6
Continuous
 62
     7
370
    30
100
AcDbLine
 10
162.030682
 20
145.523864
 30
0.0
 11
162.889773
 21
144.081818
 31
0.0
  0
LINE
  5
4E0
330
1F
100
AcDbEntity
  8
101
  6
Continuous
 62
     7
370
    30
100
AcDbLine
 10
160.527273
 20
146.935227
 30
0.0
 11
162.030682
 21
145.523864
 31
0.0
  0
LINE
  5
4E1
330
1F
100
AcDbEntity
  8
101
  6
Continuous
 62
     7
370
    30
100
AcDbLine
 10
157.6125
 20
149.052273
 30
0.0
 11
160.527273
 21
146.935227
 31
0.0
  0
LINE
  5
4E2
330
1F
100
AcDbEntity
  8
101
  6
Continuous
 62
     7
370
    30
100
AcDbLine
 10
153.930682
 20
150.678409
 30
0.0
 11
157.6125
 21
149.052273
 31
0.0
  0
LINE
  5
4E3
330
1F
100
AcDbEntity
  8
101
  6
Continuous
 62
     7
370
    30
100
AcDbLine
 10
148.929545
 20
152.335227
 30
0.0
 11
153.930682
 21
150.678409
 31
0.0
  0
LINE
  5
4E4
330
1F
100
AcDbEntity
  8
101
  6
Continuous
 62
     7
370
    30
100
AcDbLine
 10
143.406818
 20
153.746591
 30
0.0
 11
148.929545
 21
152.335227
 31
0.0
  0
LINE
  5
4E5
330
1F
100
AcDbEntity
  8
101
  6
Continuous
 62
     7
370
    30
100
AcDbLine
 10
137.393182
 20
154.820455
 30
0.0
 11
143.406818
 21
153.746591
 31
0.0
  0
LINE
  5
4E6
330
1F
100
AcDbEntity
  8
101
  6
Continuous
 62
     7
370
    30
100
AcDbLine
 10
132.392045
 20
155.679545
 30
0.0
 11
137.393182
 21
154.820455
 31
0.0
  0
LINE
  5
4E7
330
1F
100
AcDbEntity
  8
101
  6
Continuous
 62
     7
370
    30
100
AcDbLine
 10
128.280682
 20
155.832955
 30
0.0
 11
132.392045
 21
155.679545
 31
0.0
  0
LINE
  5
4E8
330
1F
100
AcDbEntity
  8
101
  6
Continuous
 62
     7
370
    30
100
AcDbLine
 10
120.947727
 20
156.078409
 30
0.0
 11
128.280682
 21
155.832955
 31
0.0
  0
LINE
  5
4E9
330
1F
100
AcDbEntity
  8
101
  6
Continuous
 62
     7
370
    30
100
AcDbLine
 10
114.259091
 20
156.2625
 30
0.0
 11
120.947727
 21
156.078409
 31
0.0
  0
LINE
  5
4EA
330
1F
100
AcDbEntity
  8
101
  6
Continuous
 62
     7
370
    30
100
AcDbLine
 10
106.588636
 20
156.078409
 30
0.0
 11
114.259091
 21
156.2625
 31
0.0
  0
LINE
  5
4EB
330
1F
100
AcDbEntity
  8
101
  6
Continuous
 62
     7
370
    30
100
AcDbLine
 10
101.863636
 20
156.047727
 30
0.0
 11
106.588636
 21
156.078409
 31
0.0
  0
LINE
  5
4EC
330
1F
100
AcDbEntity
  8
101
  6
Continuous
 62
     7
370
    30
100
AcDbLine
 10
95.727273
 20
155.955682
 30
0.0
 11
96.371591
 21
155.955682
 31
0.0
  0
LINE
  5
4ED
330
1F
100
AcDbEntity
  8
101
  6
Continuous
 62
     7
370
    30
100
AcDbLine
 10
91.431818
 20
155.802273
 30
0.0
 11
95.727273
 21
155.955682
 31
0.0
  0
LINE
  5
4EE
330
1F
100
AcDbEntity
  8
101
  6
Continuous
 62
     7
370
    30
100
AcDbLine
 10
86.093182
 20
155.434091
 30
0.0
 11
91.431818
 21
155.802273
 31
0.0
  0
LINE
  5
4EF
330
1F
100
AcDbEntity
  8
101
  6
Continuous
 62
     7
370
    30
100
AcDbLine
 10
80.601136
 20
154.759091
 30
0.0
 11
86.093182
 21
155.434091
 31
0.0
  0
LINE
  5
4F0
330
1F
100
AcDbEntity
  8
101
  6
Continuous
 62
     7
370
    30
100
AcDbLine
 10
74.802273
 20
153.623864
 30
0.0
 11
80.601136
 21
154.759091
 31
0.0
  0
LINE
  5
4F1
330
1F
100
AcDbEntity
  8
101
  6
Continuous
 62
     7
370
    30
100
AcDbLine
 10
70.414773
 20
152.672727
 30
0.0
 11
74.802273
 21
153.623864
 31
0.0
  0
LINE
  5
4F2
330
1F
100
AcDbEntity
  8
101
  6
Continuous
 62
     7
370
    30
100
AcDbLine
 10
65.873864
 20
151.445455
 30
0.0
 11
70.414773
 21
152.672727
 31
0.0
  0
LINE
  5
4F3
330
1F
100
AcDbEntity
  8
101
  6
Continuous
 62
     7
370
    30
100
AcDbLine
 10
62.468182
 20
150.064773
 30
0.0
 11
65.873864
 21
151.445455
 31
0.0
  0
LINE
  5
4F4
330
1F
100
AcDbEntity
  8
101
  6
Continuous
 62
     7
370
    30
100
AcDbLine
 10
58.05
 20
148.009091
 30
0.0
 11
62.468182
 21
150.064773
 31
0.0
  0
LINE
  5
4F5
330
1F
100
AcDbEntity
  8
101
  6
Continuous
 62
     7
370
    30
100
AcDbLine
 10
54.613636
 20
146.014773
 30
0.0
 11
58.05
 21
148.009091
 31
0.0
  0
LINE
  5
4F6
330
1F
100
AcDbEntity
  8
101
  6
Continuous
 62
     7
370
    30
100
AcDbLine
 10
53.140909
 20
144.419318
 30
0.0
 11
54.613636
 21
146.014773
 31
0.0
  0
LINE
  5
4F7
330
1F
100
AcDbEntity
  8
101
  6
Continuous
 62
     7
370
    30
100
AcDbLine
 10
52.097727
 20
142.823864
 30
0.0
 11
53.140909
 21
144.419318
 31
0.0
  0
LINE
  5
4F8
330
1F
100
AcDbEntity
  8
101
  6
Continuous
 62
     7
370
    30
100
AcDbLine
 10
52.005682
 20
140.952273
 30
0.0
 11
52.097727
 21
142.823864
 31
0.0
  0
LINE
  5
4F9
330
1F
100
AcDbEntity
  8
101
  6
Continuous
 62
     7
370
    30
100
AcDbLine
 10
52.3125
 20
139.295455
 30
0.0
 11
52.005682
 21
140.952273
 31
0.0
  0
LINE
  5
4FA
330
1F
100
AcDbEntity
  8
101
  6
Continuous
 62
     7
370
    30
100
AcDbLine
 10
53.325
 20
138.129545
 30
0.0
 11
52.3125
 21
139.295455
 31
0.0
  0
LINE
  5
4FB
330
1F
100
AcDbEntity
  8
101
  6
Continuous
 62
     7
370
    30
100
AcDbLine
 10
51.668182
 20
131.931818
 30
0.0
 11
53.355682
 21
131.226136
 31
0.0
  0
LINE
  5
4FC
330
1F
100
AcDbEntity
  8
101
  6
Continuous
 62
     7
370
    30
100
AcDbLine
 10
51.606818
 20
133.189773
 30
0.0
 11
53.355682
 21
132.422727
 31
0.0
  0
LINE
  5
4FD
330
1F
100
AcDbEntity
  8
101
  6
Continuous
 62
     7
370
    30
100
AcDbLine
 10
88.639773
 20
159.422727
 30
0.0
 11
80.785227
 21
158.993182
 31
0.0
  0
LINE
  5
4FE
330
1F
100
AcDbEntity
  8
101
  6
Continuous
 62
     7
370
    30
100
AcDbLine
 10
96.617045
 20
159.913636
 30
0.0
 11
88.639773
 21
159.422727
 31
0.0
  0
LINE
  5
4FF
330
1F
100
AcDbEntity
  8
101
  6
Continuous
 62
     7
370
    30
100
AcDbLine
 10
106.373864
 20
160.036364
 30
0.0
 11
96.617045
 21
159.913636
 31
0.0
  0
LINE
  5
500
330
1F
100
AcDbEntity
  8
101
  6
Continuous
 62
     7
370
    30
100
AcDbLine
 10
113.921591
 20
159.790909
 30
0.0
 11
106.373864
 21
160.036364
 31
0.0
  0
LINE
  5
501
330
1F
100
AcDbEntity
  8
101
  6
Continuous
 62
     7
370
    30
100
AcDbLine
 10
126.5625
 20
159.238636
 30
0.0
 11
117.235227
 21
159.729545
 31
0.0
  0
LINE
  5
502
330
1F
100
AcDbEntity
  8
101
  6
Continuous
 62
     7
370
    30
100
AcDbLine
 10
134.294318
 20
158.870455
 30
0.0
 11
126.5625
 21
159.238636
 31
0.0
  0
LINE
  5
503
330
1F
100
AcDbEntity
  8
101
  6
Continuous
 62
     7
370
    30
100
AcDbLine
 10
141.4125
 20
157.704545
 30
0.0
 11
134.294318
 21
158.870455
 31
0.0
  0
LINE
  5
504
330
1F
100
AcDbEntity
  8
101
  6
Continuous
 62
     7
370
    30
100
AcDbLine
 10
149.880682
 20
156.109091
 30
0.0
 11
141.4125
 21
157.704545
 31
0.0
  0
LINE
  5
505
330
1F
100
AcDbEntity
  8
101
  6
Continuous
 62
     7
370
    30
100
AcDbLine
 10
157.919318
 20
154.145455
 30
0.0
 11
149.880682
 21
156.109091
 31
0.0
  0
LINE
  5
506
330
1F
100
AcDbEntity
  8
101
  6
Continuous
 62
     7
370
    30
100
AcDbLine
 10
163.196591
 20
152.181818
 30
0.0
 11
157.919318
 21
154.145455
 31
0.0
  0
LINE
  5
507
330
1F
100
AcDbEntity
  8
101
  6
Continuous
 62
     7
370
    30
100
AcDbLine
 10
168.044318
 20
149.604545
 30
0.0
 11
163.196591
 21
152.181818
 31
0.0
  0
LINE
  5
508
330
1F
100
AcDbEntity
  8
101
  6
Continuous
 62
     7
370
    30
100
AcDbLine
 10
170.928409
 20
146.781818
 30
0.0
 11
168.044318
 21
149.604545
 31
0.0
  0
LINE
  5
509
330
1F
100
AcDbEntity
  8
101
  6
Continuous
 62
     7
370
    30
100
AcDbLine
 10
171.204545
 20
148.193182
 30
0.0
 11
169.118182
 21
149.85
 31
0.0
  0
LINE
  5
50A
330
1F
100
AcDbEntity
  8
101
  6
Continuous
 62
     7
370
    30
100
AcDbLine
 10
172.585227
 20
146.475
 30
0.0
 11
171.204545
 21
148.193182
 31
0.0
  0
LINE
  5
50B
330
1F
100
AcDbEntity
  8
101
  6
Continuous
 62
     7
370
    30
100
AcDbLine
 10
172.830682
 20
144.480682
 30
0.0
 11
172.585227
 21
146.475
 31
0.0
  0
LINE
  5
50C
330
1F
100
AcDbEntity
  8
101
  6
Continuous
 62
     7
370
    30
100
AcDbLine
 10
172.339773
 20
142.332955
 30
0.0
 11
172.830682
 21
144.480682
 31
0.0
  0
LINE
  5
50D
330
1F
100
AcDbEntity
  8
101
  6
Continuous
 62
     7
370
    30
100
AcDbLine
 10
171.756818
 20
140.307955
 30
0.0
 11
172.339773
 21
142.332955
 31
0.0
  0
LINE
  5
50E
330
1F
100
AcDbEntity
  8
101
  6
Continuous
 62
     7
370
    30
100
AcDbLine
 10
170.621591
 20
138.620455
 30
0.0
 11
171.756818
 21
140.307955
 31
0.0
  0
LINE
  5
50F
330
1F
100
AcDbEntity
  8
101
  6
Continuous
 62
     7
370
    30
100
AcDbLine
 10
171.818182
 20
138.313636
 30
0.0
 11
170.284091
 21
137.7
 31
0.0
  0
LINE
  5
510
330
1F
100
AcDbEntity
  8
101
  6
Continuous
 62
     7
370
    30
100
AcDbLine
 10
173.536364
 20
139.540909
 30
0.0
 11
171.818182
 21
138.313636
 31
0.0
  0
LINE
  5
511
330
1F
100
AcDbEntity
  8
101
  6
Continuous
 62
     7
370
    30
100
AcDbLine
 10
174.886364
 20
140.706818
 30
0.0
 11
173.536364
 21
139.540909
 31
0.0
  0
LINE
  5
512
330
1F
100
AcDbEntity
  8
101
  6
Continuous
 62
     7
370
    30
100
AcDbLine
 10
175.377273
 20
142.240909
 30
0.0
 11
174.886364
 21
140.706818
 31
0.0
  0
LINE
  5
513
330
1F
100
AcDbEntity
  8
101
  6
Continuous
 62
     7
370
    30
100
AcDbLine
 10
175.438636
 20
144.327273
 30
0.0
 11
175.377273
 21
142.240909
 31
0.0
  0
LINE
  5
514
330
1F
100
AcDbEntity
  8
101
  6
Continuous
 62
     7
370
    30
100
AcDbLine
 10
175.070455
 20
146.843182
 30
0.0
 11
175.438636
 21
144.327273
 31
0.0
  0
LINE
  5
515
330
1F
100
AcDbEntity
  8
101
  6
Continuous
 62
     7
370
    30
100
AcDbLine
 10
172.063636
 20
139.295455
 30
0.0
 11
170.284091
 21
137.7
 31
0.0
  0
LINE
  5
516
330
1F
100
AcDbEntity
  8
101
  6
Continuous
 62
     7
370
    30
100
AcDbLine
 10
173.536364
 20
141.443182
 30
0.0
 11
172.063636
 21
139.295455
 31
0.0
  0
LINE
  5
517
330
1F
100
AcDbEntity
  8
101
  6
Continuous
 62
     7
370
    30
100
AcDbLine
 10
174.088636
 20
143.836364
 30
0.0
 11
173.536364
 21
141.443182
 31
0.0
  0
LINE
  5
518
330
1F
100
AcDbEntity
  8
101
  6
Continuous
 62
     7
370
    30
100
AcDbLine
 10
173.290909
 20
146.720455
 30
0.0
 11
174.088636
 21
143.836364
 31
0.0
  0
LINE
  5
519
330
1F
100
AcDbEntity
  8
101
  6
Continuous
 62
     7
370
    30
100
AcDbLine
 10
171.572727
 20
148.868182
 30
0.0
 11
173.290909
 21
146.720455
 31
0.0
  0
LINE
  5
51A
330
1F
100
AcDbEntity
  8
101
  6
Continuous
 62
     7
370
    30
100
AcDbLine
 10
168.995455
 20
150.586364
 30
0.0
 11
171.572727
 21
148.868182
 31
0.0
  0
LINE
  5
51B
330
1F
100
AcDbEntity
  8
101
  6
Continuous
 62
     7
370
    30
100
AcDbLine
 10
165.559091
 20
152.55
 30
0.0
 11
168.995455
 21
150.586364
 31
0.0
  0
LINE
  5
51C
330
1F
100
AcDbEntity
  8
101
  6
Continuous
 62
     7
370
    30
100
AcDbLine
 10
161.140909
 20
154.575
 30
0.0
 11
165.559091
 21
152.55
 31
0.0
  0
LINE
  5
51D
330
1F
100
AcDbEntity
  8
101
  6
Continuous
 62
     7
370
    30
100
AcDbLine
 10
154.697727
 20
156.722727
 30
0.0
 11
161.140909
 21
154.575
 31
0.0
  0
LINE
  5
51E
330
1F
100
AcDbEntity
  8
101
  6
Continuous
 62
     7
370
    30
100
AcDbLine
 10
148.684091
 20
158.318182
 30
0.0
 11
154.697727
 21
156.722727
 31
0.0
  0
LINE
  5
51F
330
1F
100
AcDbEntity
  8
101
  6
Continuous
 62
     7
370
    30
100
AcDbLine
 10
142.363636
 20
159.729545
 30
0.0
 11
148.684091
 21
158.318182
 31
0.0
  0
LINE
  5
520
330
1F
100
AcDbEntity
  8
101
  6
Continuous
 62
     7
370
    30
100
AcDbLine
 10
135.490909
 20
160.527273
 30
0.0
 11
142.363636
 21
159.729545
 31
0.0
  0
LINE
  5
521
330
1F
100
AcDbEntity
  8
101
  6
Continuous
 62
     7
370
    30
100
AcDbLine
 10
129.784091
 20
160.895455
 30
0.0
 11
135.490909
 21
160.527273
 31
0.0
  0
LINE
  5
522
330
1F
100
AcDbEntity
  8
101
  6
Continuous
 62
     7
370
    30
100
AcDbLine
 10
120.579545
 20
161.509091
 30
0.0
 11
129.784091
 21
160.895455
 31
0.0
  0
LINE
  5
523
330
1F
100
AcDbEntity
  8
101
  6
Continuous
 62
     7
370
    30
100
AcDbLine
 10
112.111364
 20
161.631818
 30
0.0
 11
120.579545
 21
161.509091
 31
0.0
  0
LINE
  5
524
330
1F
100
AcDbEntity
  8
101
  6
Continuous
 62
     7
370
    30
100
AcDbLine
 10
105.3
 20
161.509091
 30
0.0
 11
112.111364
 21
161.631818
 31
0.0
  0
LINE
  5
525
330
1F
100
AcDbEntity
  8
101
  6
Continuous
 62
     7
370
    30
100
AcDbLine
 10
99.409091
 20
161.325
 30
0.0
 11
105.3
 21
161.509091
 31
0.0
  0
LINE
  5
526
330
1F
100
AcDbEntity
  8
101
  6
Continuous
 62
     7
370
    30
100
AcDbLine
 10
93.395455
 20
161.079545
 30
0.0
 11
99.409091
 21
161.325
 31
0.0
  0
LINE
  5
527
330
1F
100
AcDbEntity
  8
101
  6
Continuous
 62
     7
370
    30
100
AcDbLine
 10
85.847727
 20
160.527273
 30
0.0
 11
93.395455
 21
161.079545
 31
0.0
  0
LINE
  5
528
330
1F
100
AcDbEntity
  8
101
  6
Continuous
 62
     7
370
    30
100
AcDbLine
 10
80.877273
 20
160.036364
 30
0.0
 11
85.847727
 21
160.527273
 31
0.0
  0
LINE
  5
529
330
1F
100
AcDbEntity
  8
101
  6
Continuous
 62
     7
370
    30
100
AcDbLine
 10
75.784091
 20
159.238636
 30
0.0
 11
80.877273
 21
160.036364
 31
0.0
  0
LINE
  5
52A
330
1F
100
AcDbEntity
  8
101
  6
Continuous
 62
     7
370
    30
100
AcDbLine
 10
70.690909
 20
158.318182
 30
0.0
 11
75.784091
 21
159.238636
 31
0.0
  0
LINE
  5
52B
330
1F
100
AcDbEntity
  8
101
  6
Continuous
 62
     7
370
    30
100
AcDbLine
 10
64.247727
 20
156.968182
 30
0.0
 11
70.690909
 21
158.318182
 31
0.0
  0
LINE
  5
52C
330
1F
100
AcDbEntity
  8
101
  6
Continuous
 62
     7
370
    30
100
AcDbLine
 10
58.602273
 20
155.434091
 30
0.0
 11
64.247727
 21
156.968182
 31
0.0
  0
LINE
  5
52D
330
1F
100
AcDbEntity
  8
101
  6
Continuous
 62
     7
370
    30
100
AcDbLine
 10
53.754545
 20
153.715909
 30
0.0
 11
58.602273
 21
155.434091
 31
0.0
  0
LINE
  5
52E
330
1F
100
AcDbEntity
  8
101
  6
Continuous
 62
     7
370
    30
100
AcDbLine
 10
49.643182
 20
151.997727
 30
0.0
 11
53.754545
 21
153.715909
 31
0.0
  0
LINE
  5
52F
330
1F
100
AcDbEntity
  8
101
  6
Continuous
 62
     7
370
    30
100
AcDbLine
 10
46.145455
 20
150.340909
 30
0.0
 11
49.643182
 21
151.997727
 31
0.0
  0
LINE
  5
530
330
1F
100
AcDbEntity
  8
101
  6
Continuous
 62
     7
370
    30
100
AcDbLine
 10
43.445455
 20
148.131818
 30
0.0
 11
46.145455
 21
150.340909
 31
0.0
  0
LINE
  5
531
330
1F
100
AcDbEntity
  8
101
  6
Continuous
 62
     7
370
    30
100
AcDbLine
 10
41.727273
 20
145.186364
 30
0.0
 11
43.445455
 21
148.131818
 31
0.0
  0
LINE
  5
532
330
1F
100
AcDbEntity
  8
101
  6
Continuous
 62
     7
370
    30
100
AcDbLine
 10
41.665909
 20
142.854545
 30
0.0
 11
41.727273
 21
145.186364
 31
0.0
  0
LINE
  5
533
330
1F
100
AcDbEntity
  8
101
  6
Continuous
 62
     7
370
    30
100
AcDbLine
 10
42.525
 20
140.4
 30
0.0
 11
41.665909
 21
142.854545
 31
0.0
  0
LINE
  5
534
330
1F
100
AcDbEntity
  8
101
  6
Continuous
 62
     7
370
    30
100
AcDbLine
 10
44.304545
 20
138.129545
 30
0.0
 11
42.525
 21
140.4
 31
0.0
  0
LINE
  5
535
330
1F
100
AcDbEntity
  8
101
  6
Continuous
 62
     7
370
    30
100
AcDbLine
 10
46.881818
 20
136.043182
 30
0.0
 11
44.304545
 21
138.129545
 31
0.0
  0
LINE
  5
536
330
1F
100
AcDbEntity
  8
101
  6
Continuous
 62
     7
370
    30
100
AcDbLine
 10
38.628409
 20
144.542045
 30
0.0
 11
39.855682
 21
142.455682
 31
0.0
  0
LINE
  5
537
330
1F
100
AcDbEntity
  8
101
  6
Continuous
 62
     7
370
    30
100
AcDbLine
 10
172.922727
 20
149.85
 30
0.0
 11
175.070455
 21
146.843182
 31
0.0
  0
LINE
  5
538
330
1F
100
AcDbEntity
  8
101
  6
Continuous
 62
     7
370
    30
100
AcDbLine
 10
169.056818
 20
152.427273
 30
0.0
 11
172.922727
 21
149.85
 31
0.0
  0
LINE
  5
539
330
1F
100
AcDbEntity
  8
101
  6
Continuous
 62
     7
370
    30
100
AcDbLine
 10
163.840909
 20
154.943182
 30
0.0
 11
169.056818
 21
152.427273
 31
0.0
  0
LINE
  5
53A
330
1F
100
AcDbEntity
  8
101
  6
Continuous
 62
     7
370
    30
100
AcDbLine
 10
156.845455
 20
157.152273
 30
0.0
 11
163.840909
 21
154.943182
 31
0.0
  0
LINE
  5
53B
330
1F
100
AcDbEntity
  8
101
  6
Continuous
 62
     7
370
    30
100
AcDbLine
 10
149.972727
 20
158.931818
 30
0.0
 11
156.845455
 21
157.152273
 31
0.0
  0
LINE
  5
53C
330
1F
100
AcDbEntity
  8
101
  6
Continuous
 62
     7
370
    30
100
AcDbLine
 10
142.240909
 20
160.588636
 30
0.0
 11
149.972727
 21
158.931818
 31
0.0
  0
LINE
  5
53D
330
1F
100
AcDbEntity
  8
101
  6
Continuous
 62
     7
370
    30
100
AcDbLine
 10
132.238636
 20
161.693182
 30
0.0
 11
142.240909
 21
160.588636
 31
0.0
  0
LINE
  5
53E
330
1F
100
AcDbEntity
  8
101
  6
Continuous
 62
     7
370
    30
100
AcDbLine
 10
121.868182
 20
162.306818
 30
0.0
 11
132.238636
 21
161.693182
 31
0.0
  0
LINE
  5
53F
330
1F
100
AcDbEntity
  8
101
  6
Continuous
 62
     7
370
    30
100
AcDbLine
 10
112.111364
 20
162.245455
 30
0.0
 11
121.868182
 21
162.306818
 31
0.0
  0
LINE
  5
540
330
1F
100
AcDbEntity
  8
101
  6
Continuous
 62
     7
370
    30
100
AcDbLine
 10
102.722727
 20
162.368182
 30
0.0
 11
112.111364
 21
162.245455
 31
0.0
  0
LINE
  5
541
330
1F
100
AcDbEntity
  8
101
  6
Continuous
 62
     7
370
    30
100
AcDbLine
 10
95.972727
 20
162.306818
 30
0.0
 11
102.722727
 21
162.368182
 31
0.0
  0
LINE
  5
542
330
1F
100
AcDbEntity
  8
101
  6
Continuous
 62
     7
370
    30
100
AcDbLine
 10
89.775
 20
161.938636
 30
0.0
 11
95.972727
 21
162.306818
 31
0.0
  0
LINE
  5
543
330
1F
100
AcDbEntity
  8
101
  6
Continuous
 62
     7
370
    30
100
AcDbLine
 10
81.368182
 20
161.018182
 30
0.0
 11
89.775
 21
161.938636
 31
0.0
  0
LINE
  5
544
330
1F
100
AcDbEntity
  8
101
  6
Continuous
 62
     7
370
    30
100
AcDbLine
 10
70.261364
 20
159.361364
 30
0.0
 11
81.368182
 21
161.018182
 31
0.0
  0
LINE
  5
545
330
1F
100
AcDbEntity
  8
101
  6
Continuous
 62
     7
370
    30
100
AcDbLine
 10
60.136364
 20
157.152273
 30
0.0
 11
70.261364
 21
159.361364
 31
0.0
  0
LINE
  5
546
330
1F
100
AcDbEntity
  8
101
  6
Continuous
 62
     7
370
    30
100
AcDbLine
 10
54.061364
 20
155.372727
 30
0.0
 11
60.136364
 21
157.152273
 31
0.0
  0
LINE
  5
547
330
1F
100
AcDbEntity
  8
101
  6
Continuous
 62
     7
370
    30
100
AcDbLine
 10
47.25
 20
152.55
 30
0.0
 11
54.061364
 21
155.372727
 31
0.0
  0
LINE
  5
548
330
1F
100
AcDbEntity
  8
101
  6
Continuous
 62
     7
370
    30
100
AcDbLine
 10
43.015909
 20
150.156818
 30
0.0
 11
47.25
 21
152.55
 31
0.0
  0
LINE
  5
549
330
1F
100
AcDbEntity
  8
101
  6
Continuous
 62
     7
370
    30
100
AcDbLine
 10
40.438636
 20
147.702273
 30
0.0
 11
43.015909
 21
150.156818
 31
0.0
  0
LINE
  5
54A
330
1F
100
AcDbEntity
  8
101
  6
Continuous
 62
     7
370
    30
100
AcDbLine
 10
39.456818
 20
145.370455
 30
0.0
 11
40.438636
 21
147.702273
 31
0.0
  0
LINE
  5
54B
330
1F
100
AcDbEntity
  8
101
  6
Continuous
 62
     7
370
    30
100
AcDbLine
 10
39.855682
 20
142.455682
 30
0.0
 11
39.456818
 21
145.370455
 31
0.0
  0
LINE
  5
54C
330
1F
100
AcDbEntity
  8
101
  6
Continuous
 62
     7
370
    30
100
AcDbLine
 10
40.377273
 20
140.461364
 30
0.0
 11
39.855682
 21
142.455682
 31
0.0
  0
LINE
  5
54D
330
1F
100
AcDbEntity
  8
101
  6
Continuous
 62
     7
370
    30
100
AcDbLine
 10
41.911364
 20
137.884091
 30
0.0
 11
40.377273
 21
140.461364
 31
0.0
  0
LINE
  5
54E
330
1F
100
AcDbEntity
  8
101
  6
Continuous
 62
     7
370
    30
100
AcDbLine
 10
44.55
 20
135.613636
 30
0.0
 11
41.911364
 21
137.884091
 31
0.0
  0
LINE
  5
54F
330
1F
100
AcDbEntity
  8
101
  6
Continuous
 62
     7
370
    30
100
AcDbLine
 10
46.881818
 20
133.772727
 30
0.0
 11
44.55
 21
135.613636
 31
0.0
  0
LINE
  5
550
330
1F
100
AcDbEntity
  8
101
  6
Continuous
 62
     7
370
    30
100
AcDbLine
 10
174.579545
 20
162.552273
 30
0.0
 11
175.070455
 21
146.843182
 31
0.0
  0
LINE
  5
551
330
1F
100
AcDbEntity
  8
101
  6
Continuous
 62
     7
370
    30
100
AcDbLine
 10
173.413636
 20
164.761364
 30
0.0
 11
174.579545
 21
162.552273
 31
0.0
  0
LINE
  5
552
330
1F
100
AcDbEntity
  8
101
  6
Continuous
 62
     7
370
    30
100
AcDbLine
 10
170.775
 20
167.338636
 30
0.0
 11
173.413636
 21
164.761364
 31
0.0
  0
LINE
  5
553
330
1F
100
AcDbEntity
  8
101
  6
Continuous
 62
     7
370
    30
100
AcDbLine
 10
166.540909
 20
170.038636
 30
0.0
 11
170.775
 21
167.338636
 31
0.0
  0
LINE
  5
554
330
1F
100
AcDbEntity
  8
101
  6
Continuous
 62
     7
370
    30
100
AcDbLine
 10
161.386364
 20
172.186364
 30
0.0
 11
166.540909
 21
170.038636
 31
0.0
  0
LINE
  5
555
330
1F
100
AcDbEntity
  8
101
  6
Continuous
 62
     7
370
    30
100
AcDbLine
 10
153.777273
 20
175.377273
 30
0.0
 11
161.386364
 21
172.186364
 31
0.0
  0
LINE
  5
556
330
1F
100
AcDbEntity
  8
101
  6
Continuous
 62
     7
370
    30
100
AcDbLine
 10
145.186364
 20
177.709091
 30
0.0
 11
153.777273
 21
175.377273
 31
0.0
  0
LINE
  5
557
330
1F
100
AcDbEntity
  8
101
  6
Continuous
 62
     7
370
    30
100
AcDbLine
 10
136.165909
 20
179.181818
 30
0.0
 11
145.186364
 21
177.709091
 31
0.0
  0
LINE
  5
558
330
1F
100
AcDbEntity
  8
101
  6
Continuous
 62
     7
370
    30
100
AcDbLine
 10
127.145455
 20
180.163636
 30
0.0
 11
136.165909
 21
179.181818
 31
0.0
  0
LINE
  5
559
330
1F
100
AcDbEntity
  8
101
  6
Continuous
 62
     7
370
    30
100
AcDbLine
 10
117.020455
 20
180.654545
 30
0.0
 11
127.145455
 21
180.163636
 31
0.0
  0
LINE
  5
55A
330
1F
100
AcDbEntity
  8
101
  6
Continuous
 62
     7
370
    30
100
AcDbLine
 10
103.029545
 20
180.9
 30
0.0
 11
117.020455
 21
180.654545
 31
0.0
  0
LINE
  5
55B
330
1F
100
AcDbEntity
  8
101
  6
Continuous
 62
     7
370
    30
100
AcDbLine
 10
94.622727
 20
180.470455
 30
0.0
 11
103.029545
 21
180.9
 31
0.0
  0
LINE
  5
55C
330
1F
100
AcDbEntity
  8
101
  6
Continuous
 62
     7
370
    30
100
AcDbLine
 10
85.602273
 20
179.734091
 30
0.0
 11
94.622727
 21
180.470455
 31
0.0
  0
LINE
  5
55D
330
1F
100
AcDbEntity
  8
101
  6
Continuous
 62
     7
370
    30
100
AcDbLine
 10
77.195455
 20
178.752273
 30
0.0
 11
85.602273
 21
179.734091
 31
0.0
  0
LINE
  5
55E
330
1F
100
AcDbEntity
  8
101
  6
Continuous
 62
     7
370
    30
100
AcDbLine
 10
71.427273
 20
177.831818
 30
0.0
 11
77.195455
 21
178.752273
 31
0.0
  0
LINE
  5
55F
330
1F
100
AcDbEntity
  8
101
  6
Continuous
 62
     7
370
    30
100
AcDbLine
 10
65.475
 20
176.420455
 30
0.0
 11
71.427273
 21
177.831818
 31
0.0
  0
LINE
  5
560
330
1F
100
AcDbEntity
  8
101
  6
Continuous
 62
     7
370
    30
100
AcDbLine
 10
58.479545
 20
174.579545
 30
0.0
 11
65.475
 21
176.420455
 31
0.0
  0
LINE
  5
561
330
1F
100
AcDbEntity
  8
101
  6
Continuous
 62
     7
370
    30
100
AcDbLine
 10
52.956818
 20
172.247727
 30
0.0
 11
58.479545
 21
174.579545
 31
0.0
  0
LINE
  5
562
330
1F
100
AcDbEntity
  8
101
  6
Continuous
 62
     7
370
    30
100
AcDbLine
 10
48.170455
 20
170.038636
 30
0.0
 11
52.956818
 21
172.247727
 31
0.0
  0
LINE
  5
563
330
1F
100
AcDbEntity
  8
101
  6
Continuous
 62
     7
370
    30
100
AcDbLine
 10
45.040909
 20
168.259091
 30
0.0
 11
48.170455
 21
170.038636
 31
0.0
  0
LINE
  5
564
330
1F
100
AcDbEntity
  8
101
  6
Continuous
 62
     7
370
    30
100
AcDbLine
 10
42.340909
 20
165.681818
 30
0.0
 11
45.040909
 21
168.259091
 31
0.0
  0
LINE
  5
565
330
1F
100
AcDbEntity
  8
101
  6
Continuous
 62
     7
370
    30
100
AcDbLine
 10
39.088636
 20
161.877273
 30
0.0
 11
42.340909
 21
165.681818
 31
0.0
  0
LINE
  5
566
330
1F
100
AcDbEntity
  8
101
  6
Continuous
 62
     7
370
    30
100
AcDbLine
 10
37.984091
 20
148.254545
 30
0.0
 11
39.088636
 21
161.877273
 31
0.0
  0
LINE
  5
567
330
1F
100
AcDbEntity
  8
101
  6
Continuous
 62
     7
370
    30
100
AcDbLine
 10
37.922727
 20
146.475
 30
0.0
 11
37.984091
 21
148.254545
 31
0.0
  0
LINE
  5
568
330
1F
100
AcDbEntity
  8
101
  6
Continuous
 62
     7
370
    30
100
AcDbLine
 10
38.628409
 20
144.542045
 30
0.0
 11
37.922727
 21
146.475
 31
0.0
  0
LINE
  5
569
330
1F
100
AcDbEntity
  8
101
  6
Continuous
 62
     7
370
    30
100
AcDbLine
 10
159.975
 20
181.452273
 30
0.0
 11
160.588636
 21
172.554545
 31
0.0
  0
LINE
  5
56A
330
1F
100
AcDbEntity
  8
101
  6
Continuous
 62
     7
370
    30
100
AcDbLine
 10
158.931818
 20
190.104545
 30
0.0
 11
159.975
 21
181.452273
 31
0.0
  0
LINE
  5
56B
330
1F
100
AcDbEntity
  8
101
  6
Continuous
 62
     7
370
    30
100
AcDbLine
 10
157.827273
 20
192.865909
 30
0.0
 11
158.931818
 21
190.104545
 31
0.0
  0
LINE
  5
56C
330
1F
100
AcDbEntity
  8
101
  6
Continuous
 62
     7
370
    30
100
AcDbLine
 10
155.740909
 20
195.627273
 30
0.0
 11
157.827273
 21
192.865909
 31
0.0
  0
LINE
  5
56D
330
1F
100
AcDbEntity
  8
101
  6
Continuous
 62
     7
370
    30
100
AcDbLine
 10
152.120455
 20
199.002273
 30
0.0
 11
155.740909
 21
195.627273
 31
0.0
  0
LINE
  5
56E
330
1F
100
AcDbEntity
  8
101
  6
Continuous
 62
     7
370
    30
100
AcDbLine
 10
147.088636
 20
201.640909
 30
0.0
 11
152.120455
 21
199.002273
 31
0.0
  0
LINE
  5
56F
330
1F
100
AcDbEntity
  8
101
  6
Continuous
 62
     7
370
    30
100
AcDbLine
 10
140.215909
 20
204.402273
 30
0.0
 11
147.088636
 21
201.640909
 31
0.0
  0
LINE
  5
570
330
1F
100
AcDbEntity
  8
101
  6
Continuous
 62
     7
370
    30
100
AcDbLine
 10
132.852273
 20
206.365909
 30
0.0
 11
140.215909
 21
204.402273
 31
0.0
  0
LINE
  5
571
330
1F
100
AcDbEntity
  8
101
  6
Continuous
 62
     7
370
    30
100
AcDbLine
 10
124.690909
 20
207.961364
 30
0.0
 11
132.852273
 21
206.365909
 31
0.0
  0
LINE
  5
572
330
1F
100
AcDbEntity
  8
101
  6
Continuous
 62
     7
370
    30
100
AcDbLine
 10
118.431818
 20
209.004545
 30
0.0
 11
124.690909
 21
207.961364
 31
0.0
  0
LINE
  5
573
330
1F
100
AcDbEntity
  8
101
  6
Continuous
 62
     7
370
    30
100
AcDbLine
 10
112.295455
 20
209.188636
 30
0.0
 11
118.431818
 21
209.004545
 31
0.0
  0
LINE
  5
574
330
1F
100
AcDbEntity
  8
101
  6
Continuous
 62
     7
370
    30
100
AcDbLine
 10
107.386364
 20
209.372727
 30
0.0
 11
112.295455
 21
209.188636
 31
0.0
  0
LINE
  5
575
330
1F
100
AcDbEntity
  8
101
  6
Continuous
 62
     7
370
    30
100
AcDbLine
 10
101.188636
 20
209.311364
 30
0.0
 11
107.386364
 21
209.372727
 31
0.0
  0
LINE
  5
576
330
1F
100
AcDbEntity
  8
101
  6
Continuous
 62
     7
370
    30
100
AcDbLine
 10
92.475
 20
208.697727
 30
0.0
 11
101.188636
 21
209.311364
 31
0.0
  0
LINE
  5
577
330
1F
100
AcDbEntity
  8
101
  6
Continuous
 62
     7
370
    30
100
AcDbLine
 10
83.270455
 20
206.979545
 30
0.0
 11
92.475
 21
208.697727
 31
0.0
  0
LINE
  5
578
330
1F
100
AcDbEntity
  8
101
  6
Continuous
 62
     7
370
    30
100
AcDbLine
 10
74.065909
 20
204.770455
 30
0.0
 11
83.270455
 21
206.979545
 31
0.0
  0
LINE
  5
579
330
1F
100
AcDbEntity
  8
101
  6
Continuous
 62
     7
370
    30
100
AcDbLine
 10
66.825
 20
201.579545
 30
0.0
 11
74.065909
 21
204.770455
 31
0.0
  0
LINE
  5
57A
330
1F
100
AcDbEntity
  8
101
  6
Continuous
 62
     7
370
    30
100
AcDbLine
 10
60.443182
 20
196.793182
 30
0.0
 11
66.825
 21
201.579545
 31
0.0
  0
LINE
  5
57B
330
1F
100
AcDbEntity
  8
101
  6
Continuous
 62
     7
370
    30
100
AcDbLine
 10
57.006818
 20
193.479545
 30
0.0
 11
60.443182
 21
196.793182
 31
0.0
  0
LINE
  5
57C
330
1F
100
AcDbEntity
  8
101
  6
Continuous
 62
     7
370
    30
100
AcDbLine
 10
55.534091
 20
191.147727
 30
0.0
 11
57.006818
 21
193.479545
 31
0.0
  0
LINE
  5
57D
330
1F
100
AcDbEntity
  8
101
  6
Continuous
 62
     7
370
    30
100
AcDbLine
 10
52.956818
 20
172.247727
 30
0.0
 11
55.534091
 21
191.147727
 31
0.0
  0
LINE
  5
57E
330
1F
100
AcDbEntity
  8
101
  6
Continuous
 62
     7
370
    30
100
AcDbLine
 10
19.513636
 20
186.606818
 30
0.0
 11
18.506878
 21
186.541716
 31
0.0
  0
LINE
  5
57F
330
1F
100
AcDbEntity
  8
101
  6
Continuous
 62
     7
370
    30
100
AcDbLine
 10
20.157955
 20
186.760227
 30
0.0
 11
19.513636
 21
186.606818
 31
0.0
  0
LINE
  5
580
330
1F
100
AcDbEntity
  8
101
  6
Continuous
 62
     7
370
    30
100
AcDbLine
 10
20.5875
 20
187.3125
 30
0.0
 11
20.157955
 21
186.760227
 31
0.0
  0
LINE
  5
581
330
1F
100
AcDbEntity
  8
101
  6
Continuous
 62
     7
370
    30
100
AcDbLine
 10
21.047727
 20
187.864773
 30
0.0
 11
20.5875
 21
187.3125
 31
0.0
  0
LINE
  5
582
330
1F
100
AcDbEntity
  8
101
  6
Continuous
 62
     7
370
    30
100
AcDbLine
 10
21.047727
 20
188.754545
 30
0.0
 11
21.047727
 21
187.864773
 31
0.0
  0
LINE
  5
583
330
1F
100
AcDbEntity
  8
101
  6
Continuous
 62
     7
370
    30
100
AcDbLine
 10
20.526136
 20
189.736364
 30
0.0
 11
21.047727
 21
188.754545
 31
0.0
  0
LINE
  5
584
330
1F
100
AcDbEntity
  8
101
  6
Continuous
 62
     7
370
    30
100
AcDbLine
 10
19.820455
 20
190.871591
 30
0.0
 11
20.526136
 21
189.736364
 31
0.0
  0
LINE
  5
585
330
1F
100
AcDbEntity
  8
101
  6
Continuous
 62
     7
370
    30
100
AcDbLine
 10
18.986504
 20
191.894571
 30
0.0
 11
19.820455
 21
190.871591
 31
0.0
  0
LINE
  5
586
330
1F
100
AcDbEntity
  8
101
  6
Continuous
 62
     7
370
    30
100
AcDbLine
 10
17.55
 20
191.546591
 30
0.0
 11
18.225
 21
191.853409
 31
0.0
  0
LINE
  5
587
330
1F
100
AcDbEntity
  8
101
  6
Continuous
 62
     7
370
    30
100
AcDbLine
 10
17.335227
 20
190.963636
 30
0.0
 11
17.55
 21
191.546591
 31
0.0
  0
LINE
  5
588
330
1F
100
AcDbEntity
  8
101
  6
Continuous
 62
     7
370
    30
100
AcDbLine
 10
17.273864
 20
190.0125
 30
0.0
 11
17.335227
 21
190.963636
 31
0.0
  0
LINE
  5
589
330
1F
100
AcDbEntity
  8
101
  6
Continuous
 62
     7
370
    30
100
AcDbLine
 10
17.457955
 20
188.693182
 30
0.0
 11
17.273864
 21
190.0125
 31
0.0
  0
LINE
  5
58A
330
1F
100
AcDbEntity
  8
101
  6
Continuous
 62
     7
370
    30
100
AcDbLine
 10
17.8875
 20
187.496591
 30
0.0
 11
17.457955
 21
188.693182
 31
0.0
  0
LINE
  5
58B
330
1F
100
AcDbEntity
  8
101
  6
Continuous
 62
     7
370
    30
100
AcDbLine
 10
18.623864
 20
186.361364
 30
0.0
 11
17.8875
 21
187.496591
 31
0.0
  0
LINE
  5
58C
330
1F
100
AcDbEntity
  8
101
  6
Continuous
 62
     7
370
    30
100
AcDbLine
 10
19.667045
 20
185.348864
 30
0.0
 11
18.623864
 21
186.361364
 31
0.0
  0
LINE
  5
58D
330
1F
100
AcDbEntity
  8
101
  6
Continuous
 62
     7
370
    30
100
AcDbLine
 10
20.495455
 20
185.226136
 30
0.0
 11
19.667045
 21
185.348864
 31
0.0
  0
LINE
  5
58E
330
1F
100
AcDbEntity
  8
101
  6
Continuous
 62
     7
370
    30
100
AcDbLine
 10
21.538636
 20
185.686364
 30
0.0
 11
20.495455
 21
185.226136
 31
0.0
  0
LINE
  5
58F
330
1F
100
AcDbEntity
  8
101
  6
Continuous
 62
     7
370
    30
100
AcDbLine
 10
22.213636
 20
186.790909
 30
0.0
 11
21.538636
 21
185.686364
 31
0.0
  0
LINE
  5
590
330
1F
100
AcDbEntity
  8
101
  6
Continuous
 62
     7
370
    30
100
AcDbLine
 10
22.213636
 20
187.711364
 30
0.0
 11
22.213636
 21
186.790909
 31
0.0
  0
LINE
  5
591
330
1F
100
AcDbEntity
  8
101
  6
Continuous
 62
     7
370
    30
100
AcDbLine
 10
22.029545
 20
188.846591
 30
0.0
 11
22.213636
 21
187.711364
 31
0.0
  0
LINE
  5
592
330
1F
100
AcDbEntity
  8
101
  6
Continuous
 62
     7
370
    30
100
AcDbLine
 10
21.231818
 20
190.257955
 30
0.0
 11
22.029545
 21
188.846591
 31
0.0
  0
LINE
  5
593
330
1F
100
AcDbEntity
  8
101
  6
Continuous
 62
     7
370
    30
100
AcDbLine
 10
20.25
 20
191.454545
 30
0.0
 11
21.231818
 21
190.257955
 31
0.0
  0
LINE
  5
594
330
1F
100
AcDbEntity
  8
101
  6
Continuous
 62
     7
370
    30
100
AcDbLine
 10
19.360227
 20
191.914773
 30
0.0
 11
20.25
 21
191.454545
 31
0.0
  0
LINE
  5
595
330
1F
100
AcDbEntity
  8
101
  6
Continuous
 62
     7
370
    30
100
AcDbLine
 10
18.225
 20
191.853409
 30
0.0
 11
19.360227
 21
191.914773
 31
0.0
  0
LINE
  5
596
330
1F
100
AcDbEntity
  8
101
  6
Continuous
 62
     7
370
    30
100
AcDbLine
 10
34.0875
 20
182.955682
 30
0.0
 11
37.212021
 21
179.269702
 31
0.0
  0
LINE
  5
597
330
1F
100
AcDbEntity
  8
101
  6
Continuous
 62
     7
370
    30
100
AcDbLine
 10
31.3875
 20
182.832955
 30
0.0
 11
30.913792
 21
178.411291
 31
0.0
  0
LINE
  5
598
330
1F
100
AcDbEntity
  8
101
  6
Continuous
 62
     7
370
    30
100
AcDbLine
 10
32.492045
 20
183.814773
 30
0.0
 11
36.521977
 21
179.175653
 31
0.0
  0
LINE
  5
599
330
1F
100
AcDbEntity
  8
101
  6
Continuous
 62
     7
370
    30
100
AcDbLine
 10
22.919318
 20
150.432955
 30
0.0
 11
38.996591
 21
154.728409
 31
0.0
  0
LINE
  5
59A
330
1F
100
AcDbEntity
  8
101
  6
Continuous
 62
     7
370
    30
100
AcDbLine
 10
26.232955
 20
150.678409
 30
0.0
 11
38.628409
 21
144.542045
 31
0.0
  0
LINE
  5
59B
330
1F
100
AcDbEntity
  8
101
  6
Continuous
 62
     7
370
    30
100
AcDbLine
 10
25.373864
 20
175.8375
 30
0.0
 11
24.760227
 21
152.028409
 31
0.0
  0
LINE
  5
59C
330
1F
100
AcDbEntity
  8
101
  6
Continuous
 62
     7
370
    30
100
AcDbLine
 10
27.3375
 20
177.923864
 30
0.0
 11
47.372727
 21
180.654545
 31
0.0
  0
LINE
  5
59D
330
1F
100
AcDbEntity
  8
101
  6
Continuous
 62
     7
370
    30
100
AcDbLine
 10
24.6375
 20
178.046591
 30
0.0
 11
27.3375
 21
177.923864
 31
0.0
  0
LINE
  5
59E
330
1F
100
AcDbEntity
  8
101
  6
Continuous
 62
     7
370
    30
100
AcDbLine
 10
23.2875
 20
176.819318
 30
0.0
 11
24.6375
 21
178.046591
 31
0.0
  0
LINE
  5
59F
330
1F
100
AcDbEntity
  8
101
  6
Continuous
 62
     7
370
    30
100
AcDbLine
 10
22.919318
 20
150.432955
 30
0.0
 11
23.2875
 21
176.819318
 31
0.0
  0
LINE
  5
5A0
330
1F
100
AcDbEntity
  8
101
  6
Continuous
 62
     7
370
    30
100
AcDbLine
 10
22.919318
 20
150.432955
 30
0.0
 11
39.855682
 21
142.455682
 31
0.0
  0
LINE
  5
5A1
330
1F
100
AcDbEntity
  8
101
  6
Continuous
 62
     7
370
    30
100
AcDbLine
 10
42.126136
 20
110.331818
 30
0.0
 11
41.562226
 21
110.437618
 31
0.0
  0
LINE
  5
5A2
330
1F
100
AcDbEntity
  8
101
  6
Continuous
 62
     7
370
    30
100
AcDbLine
 10
42.678409
 20
110.3625
 30
0.0
 11
42.126136
 21
110.331818
 31
0.0
  0
LINE
  5
5A3
330
1F
100
AcDbEntity
  8
101
  6
Continuous
 62
     7
370
    30
100
AcDbLine
 10
43.292045
 20
110.607955
 30
0.0
 11
42.678409
 21
110.3625
 31
0.0
  0
LINE
  5
5A4
330
1F
100
AcDbEntity
  8
101
  6
Continuous
 62
     7
370
    30
100
AcDbLine
 10
43.752273
 20
111.129545
 30
0.0
 11
43.292045
 21
110.607955
 31
0.0
  0
LINE
  5
5A5
330
1F
100
AcDbEntity
  8
101
  6
Continuous
 62
     7
370
    30
100
AcDbLine
 10
43.997727
 20
111.988636
 30
0.0
 11
43.752273
 21
111.129545
 31
0.0
  0
LINE
  5
5A6
330
1F
100
AcDbEntity
  8
101
  6
Continuous
 62
     7
370
    30
100
AcDbLine
 10
43.967045
 20
113.031818
 30
0.0
 11
43.997727
 21
111.988636
 31
0.0
  0
LINE
  5
5A7
330
1F
100
AcDbEntity
  8
101
  6
Continuous
 62
     7
370
    30
100
AcDbLine
 10
43.905682
 20
114.289773
 30
0.0
 11
43.967045
 21
113.031818
 31
0.0
  0
LINE
  5
5A8
330
1F
100
AcDbEntity
  8
101
  6
Continuous
 62
     7
370
    30
100
AcDbLine
 10
43.5375
 20
115.118182
 30
0.0
 11
43.905682
 21
114.289773
 31
0.0
  0
LINE
  5
5A9
330
1F
100
AcDbEntity
  8
101
  6
Continuous
 62
     7
370
    30
100
AcDbLine
 10
42.954545
 20
115.670455
 30
0.0
 11
43.5375
 21
115.118182
 31
0.0
  0
LINE
  5
5AA
330
1F
100
AcDbEntity
  8
101
  6
Continuous
 62
     7
370
    30
100
AcDbLine
 10
42.095455
 20
115.977273
 30
0.0
 11
42.954545
 21
115.670455
 31
0.0
  0
LINE
  5
5AB
330
1F
100
AcDbEntity
  8
101
  6
Continuous
 62
     7
370
    30
100
AcDbLine
 10
41.323185
 20
115.731208
 30
0.0
 11
42.095455
 21
115.977273
 31
0.0
  0
LINE
  5
5AC
330
1F
100
AcDbEntity
  8
101
  6
Continuous
 62
     7
370
    30
100
AcDbLine
 10
42.525
 20
109.380682
 30
0.0
 11
41.727273
 21
110.025
 31
0.0
  0
LINE
  5
5AD
330
1F
100
AcDbEntity
  8
101
  6
Continuous
 62
     7
370
    30
100
AcDbLine
 10
43.568182
 20
109.319318
 30
0.0
 11
42.525
 21
109.380682
 31
0.0
  0
LINE
  5
5AE
330
1F
100
AcDbEntity
  8
101
  6
Continuous
 62
     7
370
    30
100
AcDbLine
 10
44.335227
 20
110.117045
 30
0.0
 11
43.568182
 21
109.319318
 31
0.0
  0
LINE
  5
5AF
330
1F
100
AcDbEntity
  8
101
  6
Continuous
 62
     7
370
    30
100
AcDbLine
 10
44.8875
 20
110.976136
 30
0.0
 11
44.335227
 21
110.117045
 31
0.0
  0
LINE
  5
5B0
330
1F
100
AcDbEntity
  8
101
  6
Continuous
 62
     7
370
    30
100
AcDbLine
 10
45.010227
 20
112.111364
 30
0.0
 11
44.8875
 21
110.976136
 31
0.0
  0
LINE
  5
5B1
330
1F
100
AcDbEntity
  8
101
  6
Continuous
 62
     7
370
    30
100
AcDbLine
 10
44.979545
 20
113.4
 30
0.0
 11
45.010227
 21
112.111364
 31
0.0
  0
LINE
  5
5B2
330
1F
100
AcDbEntity
  8
101
  6
Continuous
 62
     7
370
    30
100
AcDbLine
 10
44.734091
 20
114.872727
 30
0.0
 11
44.979545
 21
113.4
 31
0.0
  0
LINE
  5
5B3
330
1F
100
AcDbEntity
  8
101
  6
Continuous
 62
     7
370
    30
100
AcDbLine
 10
43.997727
 20
115.793182
 30
0.0
 11
44.734091
 21
114.872727
 31
0.0
  0
LINE
  5
5B4
330
1F
100
AcDbEntity
  8
101
  6
Continuous
 62
     7
370
    30
100
AcDbLine
 10
43.261364
 20
116.406818
 30
0.0
 11
43.997727
 21
115.793182
 31
0.0
  0
LINE
  5
5B5
330
1F
100
AcDbEntity
  8
101
  6
Continuous
 62
     7
370
    30
100
AcDbLine
 10
42.126136
 20
116.529545
 30
0.0
 11
43.261364
 21
116.406818
 31
0.0
  0
LINE
  5
5B6
330
1F
100
AcDbEntity
  8
101
  6
Continuous
 62
     7
370
    30
100
AcDbLine
 10
41.420455
 20
115.946591
 30
0.0
 11
42.126136
 21
116.529545
 31
0.0
  0
LINE
  5
5B7
330
1F
100
AcDbEntity
  8
101
  6
Continuous
 62
     7
370
    30
100
AcDbLine
 10
40.990909
 20
114.995455
 30
0.0
 11
41.420455
 21
115.946591
 31
0.0
  0
LINE
  5
5B8
330
1F
100
AcDbEntity
  8
101
  6
Continuous
 62
     7
370
    30
100
AcDbLine
 10
40.868182
 20
113.890909
 30
0.0
 11
40.990909
 21
114.995455
 31
0.0
  0
LINE
  5
5B9
330
1F
100
AcDbEntity
  8
101
  6
Continuous
 62
     7
370
    30
100
AcDbLine
 10
40.868182
 20
112.571591
 30
0.0
 11
40.868182
 21
113.890909
 31
0.0
  0
LINE
  5
5BA
330
1F
100
AcDbEntity
  8
101
  6
Continuous
 62
     7
370
    30
100
AcDbLine
 10
41.236364
 20
111.252273
 30
0.0
 11
40.868182
 21
112.571591
 31
0.0
  0
LINE
  5
5BB
330
1F
100
AcDbEntity
  8
101
  6
Continuous
 62
     7
370
    30
100
AcDbLine
 10
41.727273
 20
110.025
 30
0.0
 11
41.236364
 21
111.252273
 31
0.0
  0
LINE
  5
5BC
330
1F
100
AcDbEntity
  8
101
  6
Continuous
 62
     7
370
    30
100
AcDbLine
 10
17.764773
 20
119.260227
 30
0.0
 11
16.813636
 21
119.045455
 31
0.0
  0
LINE
  5
5BD
330
1F
100
AcDbEntity
  8
101
  6
Continuous
 62
     7
370
    30
100
AcDbLine
 10
18.317045
 20
119.720455
 30
0.0
 11
17.764773
 21
119.260227
 31
0.0
  0
LINE
  5
5BE
330
1F
100
AcDbEntity
  8
101
  6
Continuous
 62
     7
370
    30
100
AcDbLine
 10
18.685227
 20
120.395455
 30
0.0
 11
18.317045
 21
119.720455
 31
0.0
  0
LINE
  5
5BF
330
1F
100
AcDbEntity
  8
101
  6
Continuous
 62
     7
370
    30
100
AcDbLine
 10
18.838636
 20
121.530682
 30
0.0
 11
18.685227
 21
120.395455
 31
0.0
  0
LINE
  5
5C0
330
1F
100
AcDbEntity
  8
101
  6
Continuous
 62
     7
370
    30
100
AcDbLine
 10
18.807955
 20
122.543182
 30
0.0
 11
18.838636
 21
121.530682
 31
0.0
  0
LINE
  5
5C1
330
1F
100
AcDbEntity
  8
101
  6
Continuous
 62
     7
370
    30
100
AcDbLine
 10
18.685227
 20
123.801136
 30
0.0
 11
18.807955
 21
122.543182
 31
0.0
  0
LINE
  5
5C2
330
1F
100
AcDbEntity
  8
101
  6
Continuous
 62
     7
370
    30
100
AcDbLine
 10
18.255682
 20
124.690909
 30
0.0
 11
18.685227
 21
123.801136
 31
0.0
  0
LINE
  5
5C3
330
1F
100
AcDbEntity
  8
101
  6
Continuous
 62
     7
370
    30
100
AcDbLine
 10
17.488636
 20
125.028409
 30
0.0
 11
18.255682
 21
124.690909
 31
0.0
  0
LINE
  5
5C4
330
1F
100
AcDbEntity
  8
101
  6
Continuous
 62
     7
370
    30
100
AcDbLine
 10
16.660227
 20
125.059091
 30
0.0
 11
17.488636
 21
125.028409
 31
0.0
  0
LINE
  5
5C5
330
1F
100
AcDbEntity
  8
101
  6
Continuous
 62
     7
370
    30
100
AcDbLine
 10
15.903289
 20
124.705709
 30
0.0
 11
16.660227
 21
125.059091
 31
0.0
  0
LINE
  5
5C6
330
1F
100
AcDbEntity
  8
101
  6
Continuous
 62
     7
370
    30
100
AcDbLine
 10
15.809382
 20
124.081207
 30
0.0
 11
15.903289
 21
124.705709
 31
0.0
  0
LINE
  5
5C7
330
1F
100
AcDbEntity
  8
101
  6
Continuous
 62
     7
370
    30
100
AcDbLine
 10
18.225
 20
118.554545
 30
0.0
 11
16.813636
 21
119.045455
 31
0.0
  0
LINE
  5
5C8
330
1F
100
AcDbEntity
  8
101
  6
Continuous
 62
     7
370
    30
100
AcDbLine
 10
19.575
 20
119.413636
 30
0.0
 11
18.225
 21
118.554545
 31
0.0
  0
LINE
  5
5C9
330
1F
100
AcDbEntity
  8
101
  6
Continuous
 62
     7
370
    30
100
AcDbLine
 10
20.004545
 20
121.806818
 30
0.0
 11
19.575
 21
119.413636
 31
0.0
  0
LINE
  5
5CA
330
1F
100
AcDbEntity
  8
101
  6
Continuous
 62
     7
370
    30
100
AcDbLine
 10
19.820455
 20
124.077273
 30
0.0
 11
20.004545
 21
121.806818
 31
0.0
  0
LINE
  5
5CB
330
1F
100
AcDbEntity
  8
101
  6
Continuous
 62
     7
370
    30
100
AcDbLine
 10
18.961364
 20
125.55
 30
0.0
 11
19.820455
 21
124.077273
 31
0.0
  0
LINE
  5
5CC
330
1F
100
AcDbEntity
  8
101
  6
Continuous
 62
     7
370
    30
100
AcDbLine
 10
17.365909
 20
126.225
 30
0.0
 11
18.961364
 21
125.55
 31
0.0
  0
LINE
  5
5CD
330
1F
100
AcDbEntity
  8
101
  6
Continuous
 62
     7
370
    30
100
AcDbLine
 10
16.077273
 20
125.488636
 30
0.0
 11
17.365909
 21
126.225
 31
0.0
  0
LINE
  5
5CE
330
1F
100
AcDbEntity
  8
101
  6
Continuous
 62
     7
370
    30
100
AcDbLine
 10
15.831818
 20
124.384091
 30
0.0
 11
16.077273
 21
125.488636
 31
0.0
  0
LINE
  5
5CF
330
1F
100
AcDbEntity
  8
101
  6
Continuous
 62
     7
370
    30
100
AcDbLine
 10
15.709091
 20
122.727273
 30
0.0
 11
15.831818
 21
124.384091
 31
0.0
  0
LINE
  5
5D0
330
1F
100
AcDbEntity
  8
101
  6
Continuous
 62
     7
370
    30
100
AcDbLine
 10
15.954545
 20
120.702273
 30
0.0
 11
15.709091
 21
122.727273
 31
0.0
  0
LINE
  5
5D1
330
1F
100
AcDbEntity
  8
101
  6
Continuous
 62
     7
370
    30
100
AcDbLine
 10
16.813636
 20
119.045455
 30
0.0
 11
15.954545
 21
120.702273
 31
0.0
  0
LINE
  5
5D2
330
1F
100
AcDbEntity
  8
101
  6
Continuous
 62
     7
370
    30
100
AcDbLine
 10
43.077273
 20
102.231818
 30
0.0
 11
46.206818
 21
101.863636
 31
0.0
  0
LINE
  5
5D3
330
1F
100
AcDbEntity
  8
101
  6
Continuous
 62
     7
370
    30
100
AcDbLine
 10
40.070455
 20
102.661364
 30
0.0
 11
43.077273
 21
102.231818
 31
0.0
  0
LINE
  5
5D4
330
1F
100
AcDbEntity
  8
101
  6
Continuous
 62
     7
370
    30
100
AcDbLine
 10
30.129545
 20
106.220455
 30
0.0
 11
40.070455
 21
102.661364
 31
0.0
  0
LINE
  5
5D5
330
1F
100
AcDbEntity
  8
101
  6
Continuous
 62
     7
370
    30
100
AcDbLine
 10
19.759091
 20
109.779545
 30
0.0
 11
30.129545
 21
106.220455
 31
0.0
  0
LINE
  5
5D6
330
1F
100
AcDbEntity
  8
101
  6
Continuous
 62
     7
370
    30
100
AcDbLine
 10
13.438636
 20
112.111364
 30
0.0
 11
19.759091
 21
109.779545
 31
0.0
  0
LINE
  5
5D7
330
1F
100
AcDbEntity
  8
101
  6
Continuous
 62
     7
370
    30
100
AcDbLine
 10
12.088636
 20
113.215909
 30
0.0
 11
13.438636
 21
112.111364
 31
0.0
  0
LINE
  5
5D8
330
1F
100
AcDbEntity
  8
101
  6
Continuous
 62
     7
370
    30
100
AcDbLine
 10
11.352273
 20
114.197727
 30
0.0
 11
12.088636
 21
113.215909
 31
0.0
  0
LINE
  5
5D9
330
1F
100
AcDbEntity
  8
101
  6
Continuous
 62
     7
370
    30
100
AcDbLine
 10
11.229545
 20
116.222727
 30
0.0
 11
11.352273
 21
114.197727
 31
0.0
  0
LINE
  5
5DA
330
1F
100
AcDbEntity
  8
101
  6
Continuous
 62
     7
370
    30
100
AcDbLine
 10
12.395455
 20
136.779545
 30
0.0
 11
11.229545
 21
116.222727
 31
0.0
  0
LINE
  5
5DB
330
1F
100
AcDbEntity
  8
101
  6
Continuous
 62
     7
370
    30
100
AcDbLine
 10
13.377273
 20
153.593182
 30
0.0
 11
12.395455
 21
136.779545
 31
0.0
  0
LINE
  5
5DC
330
1F
100
AcDbEntity
  8
101
  6
Continuous
 62
     7
370
    30
100
AcDbLine
 10
14.052273
 20
164.884091
 30
0.0
 11
13.377273
 21
153.593182
 31
0.0
  0
LINE
  5
5DD
330
1F
100
AcDbEntity
  8
101
  6
Continuous
 62
     7
370
    30
100
AcDbLine
 10
13.990909
 20
176.175
 30
0.0
 11
14.052273
 21
164.884091
 31
0.0
  0
LINE
  5
5DE
330
1F
100
AcDbEntity
  8
101
  6
Continuous
 62
     7
370
    30
100
AcDbLine
 10
13.622727
 20
196.854545
 30
0.0
 11
13.990909
 21
176.175
 31
0.0
  0
LINE
  5
5DF
330
1F
100
AcDbEntity
  8
101
  6
Continuous
 62
     7
370
    30
100
AcDbLine
 10
14.113636
 20
199.8
 30
0.0
 11
13.622727
 21
196.854545
 31
0.0
  0
LINE
  5
5E0
330
1F
100
AcDbEntity
  8
101
  6
Continuous
 62
     7
370
    30
100
AcDbLine
 10
15.215467
 20
201.477454
 30
0.0
 11
14.113636
 21
199.8
 31
0.0
  0
LINE
  5
5E1
330
1F
100
AcDbEntity
  8
101
  6
Continuous
 62
     7
370
    30
100
AcDbLine
 10
7.977273
 20
200.106818
 30
0.0
 11
9.388636
 21
201.763636
 31
0.0
  0
LINE
  5
5E2
330
1F
100
AcDbEntity
  8
101
  6
Continuous
 62
     7
370
    30
100
AcDbLine
 10
7.240909
 20
198.204545
 30
0.0
 11
7.977273
 21
200.106818
 31
0.0
  0
LINE
  5
5E3
330
1F
100
AcDbEntity
  8
101
  6
Continuous
 62
     7
370
    30
100
AcDbLine
 10
6.934091
 20
195.259091
 30
0.0
 11
7.240909
 21
198.204545
 31
0.0
  0
LINE
  5
5E4
330
1F
100
AcDbEntity
  8
101
  6
Continuous
 62
     7
370
    30
100
AcDbLine
 10
6.381818
 20
175.561364
 30
0.0
 11
6.934091
 21
195.259091
 31
0.0
  0
LINE
  5
5E5
330
1F
100
AcDbEntity
  8
101
  6
Continuous
 62
     7
370
    30
100
AcDbLine
 10
5.522727
 20
153.531818
 30
0.0
 11
6.381818
 21
175.561364
 31
0.0
  0
LINE
  5
5E6
330
1F
100
AcDbEntity
  8
101
  6
Continuous
 62
     7
370
    30
100
AcDbLine
 10
5.093182
 20
132.729545
 30
0.0
 11
5.522727
 21
153.531818
 31
0.0
  0
LINE
  5
5E7
330
1F
100
AcDbEntity
  8
101
  6
Continuous
 62
     7
370
    30
100
AcDbLine
 10
5.031818
 20
118.922727
 30
0.0
 11
5.093182
 21
132.729545
 31
0.0
  0
LINE
  5
5E8
330
1F
100
AcDbEntity
  8
101
  6
Continuous
 62
     7
370
    30
100
AcDbLine
 10
5.338636
 20
115.547727
 30
0.0
 11
5.031818
 21
118.922727
 31
0.0
  0
LINE
  5
5E9
330
1F
100
AcDbEntity
  8
101
  6
Continuous
 62
     7
370
    30
100
AcDbLine
 10
5.584091
 20
113.4
 30
0.0
 11
5.338636
 21
115.547727
 31
0.0
  0
LINE
  5
5EA
330
1F
100
AcDbEntity
  8
101
  6
Continuous
 62
     7
370
    30
100
AcDbLine
 10
7.486364
 20
110.638636
 30
0.0
 11
5.584091
 21
113.4
 31
0.0
  0
LINE
  5
5EB
330
1F
100
AcDbEntity
  8
101
  6
Continuous
 62
     7
370
    30
100
AcDbLine
 10
37.8
 20
100.636364
 30
0.0
 11
7.486364
 21
110.638636
 31
0.0
  0
LINE
  5
5EC
330
1F
100
AcDbEntity
  8
101
  6
Continuous
 62
     7
370
    30
100
AcDbLine
 10
40.278726
 20
100.299279
 30
0.0
 11
37.8
 21
100.636364
 31
0.0
  0
LINE
  5
5ED
330
1F
100
AcDbEntity
  8
101
  6
Continuous
 62
     7
370
    30
100
AcDbLine
 10
37.370455
 20
99.531818
 30
0.0
 11
46.206818
 21
101.863636
 31
0.0
  0
LINE
  5
5EE
330
1F
100
AcDbEntity
  8
101
  6
Continuous
 62
     7
370
    30
100
AcDbLine
 10
15.831818
 20
105.975
 30
0.0
 11
37.370455
 21
99.531818
 31
0.0
  0
LINE
  5
5EF
330
1F
100
AcDbEntity
  8
101
  6
Continuous
 62
     7
370
    30
100
AcDbLine
 10
2.822727
 20
110.454545
 30
0.0
 11
15.831818
 21
105.975
 31
0.0
  0
LINE
  5
5F0
330
1F
100
AcDbEntity
  8
101
  6
Continuous
 62
     7
370
    30
100
AcDbLine
 10
1.656818
 20
111.129545
 30
0.0
 11
2.822727
 21
110.454545
 31
0.0
  0
LINE
  5
5F1
330
1F
100
AcDbEntity
  8
101
  6
Continuous
 62
     7
370
    30
100
AcDbLine
 10
0.736364
 20
112.418182
 30
0.0
 11
1.656818
 21
111.129545
 31
0.0
  0
LINE
  5
5F2
330
1F
100
AcDbEntity
  8
101
  6
Continuous
 62
     7
370
    30
100
AcDbLine
 10
0.552273
 20
113.829545
 30
0.0
 11
0.736364
 21
112.418182
 31
0.0
  0
LINE
  5
5F3
330
1F
100
AcDbEntity
  8
101
  6
Continuous
 62
     7
370
    30
100
AcDbLine
 10
2.945455
 20
200.168182
 30
0.0
 11
0.552273
 21
113.829545
 31
0.0
  0
LINE
  5
5F4
330
1F
100
AcDbEntity
  8
101
  6
Continuous
 62
     7
370
    30
100
AcDbLine
 10
3.927273
 20
201.763636
 30
0.0
 11
2.945455
 21
200.168182
 31
0.0
  0
LINE
  5
5F5
330
1F
100
AcDbEntity
  8
101
  6
Continuous
 62
     7
370
    30
100
AcDbLine
 10
14.727273
 20
201.763636
 30
0.0
 11
3.927273
 21
201.763636
 31
0.0
  0
LINE
  5
5F6
330
1F
100
AcDbEntity
  8
101
  6
Continuous
 62
     7
370
    30
100
AcDbLine
 10
43.2
 20
185.072727
 30
0.0
 11
14.727273
 21
201.763636
 31
0.0
  0
LINE
  5
5F7
330
1F
100
AcDbEntity
  8
101
  6
Continuous
 62
     7
370
    30
100
AcDbLine
 10
47.372727
 20
180.654545
 30
0.0
 11
43.2
 21
185.072727
 31
0.0
  0
LINE
  5
5F8
330
1F
100
AcDbEntity
  8
101
  6
Continuous
 62
     7
370
    30
100
AcDbLine
 10
53.018182
 20
181.636364
 30
0.0
 11
47.372727
 21
180.654545
 31
0.0
  0
ENDSEC
  0
SECTION
  2
OBJECTS
  0
DICTIONARY
  5
C
330
0
100
AcDbDictionary
281
     1
  3
ACAD_DETAILVIEWSTYLE
350
600
  3
ACAD_GROUP
350
D
  3
ACAD_LAYOUT
350
1A
  3
ACAD_MATERIAL
350
43
  3
ACAD_MLEADERSTYLE
350
6B
  3
ACAD_MLINESTYLE
350
17
  3
ACAD_PLOTSETTINGS
350
19
  3
ACAD_PLOTSTYLENAME
350
E
  3
ACAD_SCALELIST
350
47
  3
ACAD_SECTIONVIEWSTYLE
350
601
  3
ACAD_TABLESTYLE
350
69
  3
ACAD_VISUALSTYLE
350
2A
  3
ACDB_RECOMPOSE_DATA
350
5FD
  3
AcDbVariableDictionary
350
5F9
  0
SUN
  5
6D
330
29
100
AcDbSun
 90
        1
290
     0
 63
     7
421
 16777215
 40
1.0
291
     1
 91
  2455826
 92
 54000000
292
     0
 70
     2
 71
   256
280
     1
  0
DICTIONARY
  5
600
102
{ACAD_REACTORS
330
C
102
}
330
C
100
AcDbDictionary
281
     1
  0
DICTIONARY
  5
D
102
{ACAD_REACTORS
330
C
102
}
330
C
100
AcDbDictionary
281
     1
  0
DICTIONARY
  5
1A
102
{ACAD_REACTORS
330
C
102
}
330
C
100
AcDbDictionary
281
     1
  3
Layout1
350
1E
  3
Layout2
350
26
  3
Model
350
22
  0
DICTIONARY
  5
43
102
{ACAD_REACTORS
330
C
102
}
330
C
100
AcDbDictionary
281
     1
  3
ByBlock
350
45
  3
ByLayer
350
44
  3
Global
350
46
  0
DICTIONARY
  5
6B
102
{ACAD_REACTORS
330
C
102
}
330
C
100
AcDbDictionary
281
     1
  3
Standard
350
6C
  0
DICTIONARY
  5
17
102
{ACAD_REACTORS
330
C
102
}
330
C
100
AcDbDictionary
281
     1
  3
Standard
350
18
  0
DICTIONARY
  5
19
102
{ACAD_REACTORS
330
C
102
}
330
C
100
AcDbDictionary
281
     1
  0
ACDBDICTIONARYWDFLT
  5
E
102
{ACAD_REACTORS
330
C
102
}
330
C
100
AcDbDictionary
281
     1
  3
Normal
350
F
100
AcDbDictionaryWithDefault
340
F
  0
DICTIONARY
  5
47
102
{ACAD_REACTORS
330
C
102
}
330
C
100
AcDbDictionary
281
     1
  3
A0
350
48
  3
A1
350
49
  3
A2
350
4A
  3
A3
350
4B
  3
A4
350
4C
  3
A5
350
4D
  3
A6
350
4E
  3
A7
350
4F
  3
A8
350
50
  3
A9
350
51
  3
B0
350
52
  3
B1
350
53
  3
B2
350
54
  3
B3
350
55
  3
B4
350
56
  3
B5
350
57
  3
B6
350
58
  3
B7
350
59
  3
B8
350
5A
  3
B9
350
5B
  3
C0
350
5C
  3
C1
350
5D
  3
C2
350
5E
  3
C3
350
5F
  3
C4
350
60
  3
C5
350
61
  3
C6
350
62
  3
C7
350
63
  3
C8
350
64
  3
C9
350
65
  3
D0
350
66
  3
D1
350
67
  3
D2
350
68
  0
DICTIONARY
  5
601
102
{ACAD_REACTORS
330
C
102
}
330
C
100
AcDbDictionary
281
     1
  0
DICTIONARY
  5
69
102
{ACAD_REACTORS
330
C
102
}
330
C
100
AcDbDictionary
281
     1
  3
Standard
350
6A
  0
DICTIONARY
  5
2A
102
{ACAD_REACTORS
330
C
102
}
330
C
100
AcDbDictionary
281
     1
  3
2dWireframe
350
2F
  3
Basic
350
32
  3
Brighten
350
36
  3
ColorChange
350
3A
  3
Conceptual
350
34
  3
Dim
350
35
  3
EdgeColorOff
350
3D
  3
Facepattern
350
39
  3
Flat
350
2B
  3
FlatWithEdges
350
2C
  3
Gouraud
350
2D
  3
GouraudWithEdges
350
2E
  3
Hidden
350
31
  3
JitterOff
350
3B
  3
Linepattern
350
38
  3
OverhangOff
350
3C
  3
Realistic
350
33
  3
Shaded
350
42
  3
Shaded with edges
350
41
  3
Shades of Gray
350
3E
  3
Sketchy
350
3F
  3
Thicken
350
37
  3
Wireframe
350
30
  3
X-Ray
350
40
  0
XRECORD
  5
5FD
102
{ACAD_REACTORS
330
C
102
}
330
C
100
AcDbXrecord
280
     1
 90
        1
330
6A
  0
DICTIONARY
  5
5F9
102
{ACAD_REACTORS
330
C
102
}
330
C
100
AcDbDictionary
281
     1
  3
CANNOSCALE
350
5FA
  3
CMLEADERSTYLE
350
5FF
  3
CTABLESTYLE
350
5FE
  0
LAYOUT
  5
1E
102
{ACAD_REACTORS
330
1A
102
}
330
1A
100
AcDbPlotSettings
  1

  2
none_device
  4

  6

 40
0.0
 41
0.0
 42
0.0
 43
0.0
 44
0.0
 45
0.0
 46
0.0
 47
0.0
 48
0.0
 49
0.0
140
0.0
141
0.0
142
1.0
143
1.0
 70
   688
 72
     0
 73
     0
 74
     5
  7

 75
    16
 76
     0
 77
     2
 78
   300
147
1.0
148
0.0
149
0.0
100
AcDbLayout
  1
Layout1
 70
     1
 71
     1
 10
0.0
 20
0.0
 11
297.0
 21
210.0
 12
0.0
 22
0.0
 32
0.0
 14
0.0
 24
0.0
 34
0.0
 15
297.0
 25
210.0
 35
0.0
146
0.0
 13
0.0
 23
0.0
 33
0.0
 16
1.0
 26
0.0
 36
0.0
 17
0.0
 27
1.0
 37
0.0
 76
     0
330
1B
  0
LAYOUT
  5
26
102
{ACAD_REACTORS
330
1A
102
}
330
1A
100
AcDbPlotSettings
  1

  2
none_device
  4

  6

 40
0.0
 41
0.0
 42
0.0
 43
0.0
 44
0.0
 45
0.0
 46
0.0
 47
0.0
 48
0.0
 49
0.0
140
0.0
141
0.0
142
1.0
143
1.0
 70
   688
 72
     0
 73
     0
 74
     5
  7

 75
    16
 76
     0
 77
     2
 78
   300
147
1.0
148
0.0
149
0.0
100
AcDbLayout
  1
Layout2
 70
     1
 71
     2
 10
0.0
 20
0.0
 11
0.0
 21
0.0
 12
0.0
 22
0.0
 32
0.0
 14
0.0
 24
0.0
 34
0.0
 15
0.0
 25
0.0
 35
0.0
146
0.0
 13
0.0
 23
0.0
 33
0.0
 16
1.0
 26
0.0
 36
0.0
 17
0.0
 27
1.0
 37
0.0
 76
     0
330
23
  0
LAYOUT
  5
22
102
{ACAD_REACTORS
330
1A
102
}
330
1A
100
AcDbPlotSettings
  1

  2
none_device
  4
Letter_(8.50_x_11.00_Inches)
  6

 40
6.35
 41
6.35
 42
6.35000508
 43
6.35000508
 44
215.9
 45
279.4
 46
0.0
 47
0.0
 48
0.0
 49
0.0
140
0.0
141
0.0
142
1.0
143
1.0
 70
  1712
 72
     0
 73
     0
 74
     0
  7

 75
     0
 76
     0
 77
     2
 78
   300
147
1.0
148
0.0
149
0.0
100
AcDbLayout
  1
Model
 70
     1
 71
     0
 10
0.0
 20
0.0
 11
297.0
 21
210.0
 12
0.0
 22
0.0
 32
0.0
 14
-38.21298594841858
 24
-101.7757571212121
 34
0.0
 15
211.7870140515814
 25
358.8465109090908
 35
0.0
146
0.0
 13
0.0
 23
0.0
 33
0.0
 16
1.0
 26
0.0
 36
0.0
 17
0.0
 27
1.0
 37
0.0
 76
     0
330
1F
331
29
  0
MATERIAL
  5
45
102
{ACAD_REACTORS
330
43
102
}
330
43
100
AcDbMaterial
  1
ByBlock
 72
     1
 94
      127
  0
MATERIAL
  5
44
102
{ACAD_REACTORS
330
43
102
}
330
43
100
AcDbMaterial
  1
ByLayer
 72
     1
 94
      127
  0
MATERIAL
  5
46
102
{ACAD_REACTORS
330
43
102
}
330
43
100
AcDbMaterial
  1
Global
 72
     1
 94
      127
  0
MLEADERSTYLE
  5
6C
102
{ACAD_REACTORS
330
6B
102
}
330
6B
100
AcDbMLeaderStyle
179
     2
170
     2
171
     1
172
     0
 90
        2
 40
0.0
 41
0.0
173
     1
 91
-1056964608
340
14
 92
       -2
290
     1
 42
0.09
291
     1
 43
0.36
  3
Standard
341
0
 44
0.18
300

342
11
174
     1
178
     6
175
     1
176
     0
 93
-1056964608
 45
0.18
292
     0
297
     0
 46
0.18
343
0
 94
-1056964608
 47
1.0
 49
1.0
140
1.0
293
     1
141
0.0
294
     1
177
     0
142
1.0
295
     0
296
     0
143
0.125
271
     0
272
     9
273
     9
298
     0
  0
MLINESTYLE
  5
18
102
{ACAD_REACTORS
330
17
102
}
330
17
100
AcDbMlineStyle
  2
Standard
 70
     0
  3

 62
   256
 51
90.0
 52
90.0
 71
     2
 49
0.5
 62
   256
  6
BYLAYER
 49
-0.5
 62
   256
  6
BYLAYER
  0
ACDBPLACEHOLDER
  5
F
102
{ACAD_REACTORS
330
E
102
}
330
E
  0
SCALE
  5
48
102
{ACAD_REACTORS
330
47
102
}
330
47
100
AcDbScale
 70
     0
300
1:1
140
1.0
141
1.0
290
     1
  0
SCALE
  5
49
102
{ACAD_REACTORS
330
47
102
}
330
47
100
AcDbScale
 70
     0
300
1:2
140
1.0
141
2.0
290
     0
  0
SCALE
  5
4A
102
{ACAD_REACTORS
330
47
102
}
330
47
100
AcDbScale
 70
     0
300
1:4
140
1.0
141
4.0
290
     0
  0
SCALE
  5
4B
102
{ACAD_REACTORS
330
47
102
}
330
47
100
AcDbScale
 70
     0
300
1:5
140
1.0
141
5.0
290
     0
  0
SCALE
  5
4C
102
{ACAD_REACTORS
330
47
102
}
330
47
100
AcDbScale
 70
     0
300
1:8
140
1.0
141
8.0
290
     0
  0
SCALE
  5
4D
102
{ACAD_REACTORS
330
47
102
}
330
47
100
AcDbScale
 70
     0
300
1:10
140
1.0
141
10.0
290
     0
  0
SCALE
  5
4E
102
{ACAD_REACTORS
330
47
102
}
330
47
100
AcDbScale
 70
     0
300
1:16
140
1.0
141
16.0
290
     0
  0
SCALE
  5
4F
102
{ACAD_REACTORS
330
47
102
}
330
47
100
AcDbScale
 70
     0
300
1:20
140
1.0
141
20.0
290
     0
  0
SCALE
  5
50
102
{ACAD_REACTORS
330
47
102
}
330
47
100
AcDbScale
 70
     0
300
1:30
140
1.0
141
30.0
290
     0
  0
SCALE
  5
51
102
{ACAD_REACTORS
330
47
102
}
330
47
100
AcDbScale
 70
     0
300
1:40
140
1.0
141
40.0
290
     0
  0
SCALE
  5
52
102
{ACAD_REACTORS
330
47
102
}
330
47
100
AcDbScale
 70
     0
300
1:50
140
1.0
141
50.0
290
     0
  0
SCALE
  5
53
102
{ACAD_REACTORS
330
47
102
}
330
47
100
AcDbScale
 70
     0
300
1:100
140
1.0
141
100.0
290
     0
  0
SCALE
  5
54
102
{ACAD_REACTORS
330
47
102
}
330
47
100
AcDbScale
 70
     0
300
2:1
140
2.0
141
1.0
290
     0
  0
SCALE
  5
55
102
{ACAD_REACTORS
330
47
102
}
330
47
100
AcDbScale
 70
     0
300
4:1
140
4.0
141
1.0
290
     0
  0
SCALE
  5
56
102
{ACAD_REACTORS
330
47
102
}
330
47
100
AcDbScale
 70
     0
300
8:1
140
8.0
141
1.0
290
     0
  0
SCALE
  5
57
102
{ACAD_REACTORS
330
47
102
}
330
47
100
AcDbScale
 70
     0
300
10:1
140
10.0
141
1.0
290
     0
  0
SCALE
  5
58
102
{ACAD_REACTORS
330
47
102
}
330
47
100
AcDbScale
 70
     0
300
100:1
140
100.0
141
1.0
290
     0
  0
SCALE
  5
59
102
{ACAD_REACTORS
330
47
102
}
330
47
100
AcDbScale
 70
     0
300
1/128" = 1'-0"
140
0.0078125
141
12.0
290
     0
  0
SCALE
  5
5A
102
{ACAD_REACTORS
330
47
102
}
330
47
100
AcDbScale
 70
     0
300
1/64" = 1'-0"
140
0.015625
141
12.0
290
     0
  0
SCALE
  5
5B
102
{ACAD_REACTORS
330
47
102
}
330
47
100
AcDbScale
 70
     0
300
1/32" = 1'-0"
140
0.03125
141
12.0
290
     0
  0
SCALE
  5
5C
102
{ACAD_REACTORS
330
47
102
}
330
47
100
AcDbScale
 70
     0
300
1/16" = 1'-0"
140
0.0625
141
12.0
290
     0
  0
SCALE
  5
5D
102
{ACAD_REACTORS
330
47
102
}
330
47
100
AcDbScale
 70
     0
300
3/32" = 1'-0"
140
0.09375
141
12.0
290
     0
  0
SCALE
  5
5E
102
{ACAD_REACTORS
330
47
102
}
330
47
100
AcDbScale
 70
     0
300
1/8" = 1'-0"
140
0.125
141
12.0
290
     0
  0
SCALE
  5
5F
102
{ACAD_REACTORS
330
47
102
}
330
47
100
AcDbScale
 70
     0
300
3/16" = 1'-0"
140
0.1875
141
12.0
290
     0
  0
SCALE
  5
60
102
{ACAD_REACTORS
330
47
102
}
330
47
100
AcDbScale
 70
     0
300
1/4" = 1'-0"
140
0.25
141
12.0
290
     0
  0
SCALE
  5
61
102
{ACAD_REACTORS
330
47
102
}
330
47
100
AcDbScale
 70
     0
300
3/8" = 1'-0"
140
0.375
141
12.0
290
     0
  0
SCALE
  5
62
102
{ACAD_REACTORS
330
47
102
}
330
47
100
AcDbScale
 70
     0
300
1/2" = 1'-0"
140
0.5
141
12.0
290
     0
  0
SCALE
  5
63
102
{ACAD_REACTORS
330
47
102
}
330
47
100
AcDbScale
 70
     0
300
3/4" = 1'-0"
140
0.75
141
12.0
290
     0
  0
SCALE
  5
64
102
{ACAD_REACTORS
330
47
102
}
330
47
100
AcDbScale
 70
     0
300
1" = 1'-0"
140
1.0
141
12.0
290
     0
  0
SCALE
  5
65
102
{ACAD_REACTORS
330
47
102
}
330
47
100
AcDbScale
 70
     0
300
1-1/2" = 1'-0"
140
1.5
141
12.0
290
     0
  0
SCALE
  5
66
102
{ACAD_REACTORS
330
47
102
}
330
47
100
AcDbScale
 70
     0
300
3" = 1'-0"
140
3.0
141
12.0
290
     0
  0
SCALE
  5
67
102
{ACAD_REACTORS
330
47
102
}
330
47
100
AcDbScale
 70
     0
300
6" = 1'-0"
140
6.0
141
12.0
290
     0
  0
SCALE
  5
68
102
{ACAD_REACTORS
330
47
102
}
330
47
100
AcDbScale
 70
     0
300
1'-0" = 1'-0"
140
12.0
141
12.0
290
     0
  0
TABLESTYLE
  5
6A
102
{ACAD_REACTORS
330
69
102
}
102
{ACAD_XDICTIONARY
360
5FB
102
}
330
69
100
AcDbTableStyle
  3
Standard
 70
     0
 71
     0
 40
0.06
 41
0.06
280
     0
281
     0
  7
Standard
140
0.18
170
     2
 62
     0
 63
   257
283
     0
 90
        4
 91
        0
  1

274
    -2
284
     1
 64
     0
275
    -2
285
     1
 65
     0
276
    -2
286
     1
 66
     0
277
    -2
287
     1
 67
     0
278
    -2
288
     1
 68
     0
279
    -2
289
     1
 69
     0
  7
Standard
140
0.25
170
     5
 62
     0
 63
   257
283
     0
 90
        4
 91
        0
  1

274
    -2
284
     1
 64
     0
275
    -2
285
     1
 65
     0
276
    -2
286
     1
 66
     0
277
    -2
287
     1
 67
     0
278
    -2
288
     1
 68
     0
279
    -2
289
     1
 69
     0
  7
Standard
140
0.18
170
     5
 62
     0
 63
   257
283
     0
 90
        4
 91
        0
  1

274
    -2
284
     1
 64
     0
275
    -2
285
     1
 65
     0
276
    -2
286
     1
 66
     0
277
    -2
287
     1
 67
     0
278
    -2
288
     1
 68
     0
279
    -2
289
     1
 69
     0
  0
VISUALSTYLE
  5
2F
102
{ACAD_REACTORS
330
2A
102
}
330
2A
100
AcDbVisualStyle
  2
2dWireframe
 70
     4
177
     3
291
     0
 70
    58
 90
        0
176
     1
 90
        2
176
     1
 90
        0
176
     1
 90
        0
176
     1
 40
0.6
176
     1
 40
30.0
176
     1
 62
     7
420
 16777215
176
     1
 90
        1
176
     1
 90
        4
176
     1
 62
     7
176
     1
 62
   257
176
     1
 90
        1
176
     1
 90
        1
176
     1
 40
1.0
176
     1
 90
        0
176
     1
 62
   257
176
     1
 40
1.0
176
     1
 90
        1
176
     1
 90
        6
176
     1
 90
        2
176
     1
 62
     7
176
     1
 90
        5
176
     1
 90
        0
176
     1
 90
        0
176
     1
290
     0
176
     1
 90
        1
176
     1
 40
0.0
176
     1
 90
        0
176
     1
290
     1
176
     1
290
     1
176
     1
290
     0
176
     1
290
     0
176
     1
290
     0
176
     1
290
     0
176
     1
290
     0
176
     1
290
     0
176
     1
290
     0
176
     1
 90
       50
176
     1
 40
0.0
176
     1
 40
1.0
176
     1
 90
        0
176
     1
 62
    18
420
        0
176
     1
 90
       50
176
     1
 90
        3
176
     1
 62
     5
420
      255
176
     1
290
     0
176
     1
 90
       50
176
     1
 90
       50
176
     1
 90
       50
176
     1
290
     0
176
     1
 90
       50
176
     1
 62
   256
176
     0
 40
1.0
176
     0
 90
        2
176
     1
  1
strokes_ogs.tif
176
     1
290
     0
176
     1
 40
1.0
176
     1
 40
1.0
176
     1
  0
VISUALSTYLE
  5
32
102
{ACAD_REACTORS
330
2A
102
}
330
2A
100
AcDbVisualStyle
  2
Basic
 70
     7
177
     3
291
     1
 70
    58
 90
        1
176
     1
 90
        0
176
     1
 90
        1
176
     1
 90
        0
176
     1
 40
0.6
176
     1
 40
30.0
176
     1
 62
     7
420
 16777215
176
     1
 90
        0
176
     1
 90
        4
176
     1
 62
     7
176
     1
 62
   257
176
     1
 90
        1
176
     1
 90
        1
176
     1
 40
1.0
176
     1
 90
        8
176
     1
 62
     7
176
     1
 40
1.0
176
     1
 90
        1
176
     1
 90
        6
176
     1
 90
        2
176
     1
 62
     7
176
     1
 90
        5
176
     1
 90
        0
176
     1
 90
        0
176
     1
290
     0
176
     1
 90
        1
176
     1
 40
0.0
176
     1
 90
        0
176
     1
290
     0
176
     1
290
     1
176
     1
290
     1
176
     1
290
     0
176
     1
290
     0
176
     1
290
     0
176
     1
290
     0
176
     1
290
     0
176
     1
290
     0
176
     1
 90
       50
176
     1
 40
0.0
176
     1
 40
1.0
176
     1
 90
        0
176
     1
 62
    18
420
        0
176
     1
 90
       50
176
     1
 90
        3
176
     1
 62
     5
420
      255
176
     1
290
     0
176
     1
 90
       50
176
     1
 90
       50
176
     1
 90
       50
176
     1
290
     0
176
     1
 90
       50
176
     1
 62
   256
176
     0
 40
1.0
176
     0
 90
        2
176
     1
  1
strokes_ogs.tif
176
     1
290
     0
176
     1
 40
1.0
176
     1
 40
1.0
176
     1
  0
VISUALSTYLE
  5
36
102
{ACAD_REACTORS
330
2A
102
}
330
2A
100
AcDbVisualStyle
  2
Brighten
 70
    12
177
     3
291
     1
 70
    58
 90
        2
176
     1
 90
        2
176
     1
 90
        0
176
     1
 90
        0
176
     1
 40
0.6
176
     1
 40
30.0
176
     1
 62
     7
420
 16777215
176
     1
 90
        1
176
     1
 90
        4
176
     1
 62
     7
176
     1
 62
   257
176
     1
 90
        1
176
     1
 90
        1
176
     1
 40
1.0
176
     1
 90
        8
176
     1
 62
     7
176
     1
 40
1.0
176
     1
 90
        1
176
     1
 90
        6
176
     1
 90
        2
176
     1
 62
     7
176
     1
 90
        5
176
     1
 90
        0
176
     1
 90
        0
176
     1
290
     0
176
     1
 90
        1
176
     1
 40
50.0
176
     1
 90
        0
176
     1
290
     0
176
     1
290
     1
176
     1
290
     1
176
     1
290
     0
176
     1
290
     0
176
     1
290
     0
176
     1
290
     0
176
     1
290
     0
176
     1
290
     0
176
     1
 90
       50
176
     1
 40
0.0
176
     1
 40
1.0
176
     1
 90
        0
176
     1
 62
    18
420
        0
176
     1
 90
       50
176
     1
 90
        3
176
     1
 62
     5
420
      255
176
     1
290
     0
176
     1
 90
       50
176
     1
 90
       50
176
     1
 90
       50
176
     1
290
     0
176
     1
 90
       50
176
     1
 62
   256
176
     0
 40
1.0
176
     0
 90
        2
176
     1
  1
strokes_ogs.tif
176
     1
290
     0
176
     1
 40
1.0
176
     1
 40
1.0
176
     1
  0
VISUALSTYLE
  5
3A
102
{ACAD_REACTORS
330
2A
102
}
330
2A
100
AcDbVisualStyle
  2
ColorChange
 70
    16
177
     3
291
     1
 70
    58
 90
        2
176
     1
 90
        2
176
     1
 90
        3
176
     1
 90
        0
176
     1
 40
0.6
176
     1
 40
30.0
176
     1
 62
     8
420
  8421504
176
     1
 90
        1
176
     1
 90
        4
176
     1
 62
     7
176
     1
 62
   257
176
     1
 90
        1
176
     1
 90
        1
176
     1
 40
1.0
176
     1
 90
        8
176
     1
 62
     8
420
  8421504
176
     1
 40
1.0
176
     1
 90
        1
176
     1
 90
        6
176
     1
 90
        2
176
     1
 62
     7
176
     1
 90
        5
176
     1
 90
        0
176
     1
 90
        0
176
     1
290
     0
176
     1
 90
        1
176
     1
 40
0.0
176
     1
 90
        0
176
     1
290
     0
176
     1
290
     1
176
     1
290
     1
176
     1
290
     0
176
     1
290
     0
176
     1
290
     0
176
     1
290
     0
176
     1
290
     0
176
     1
290
     0
176
     1
 90
       50
176
     1
 40
0.0
176
     1
 40
1.0
176
     1
 90
        0
176
     1
 62
    18
420
        0
176
     1
 90
       50
176
     1
 90
        3
176
     1
 62
     5
420
      255
176
     1
290
     0
176
     1
 90
       50
176
     1
 90
       50
176
     1
 90
       50
176
     1
290
     0
176
     1
 90
       50
176
     1
 62
   256
176
     0
 40
1.0
176
     0
 90
        2
176
     1
  1
strokes_ogs.tif
176
     1
290
     0
176
     1
 40
1.0
176
     1
 40
1.0
176
     1
  0
VISUALSTYLE
  5
34
102
{ACAD_REACTORS
330
2A
102
}
330
2A
100
AcDbVisualStyle
  2
Conceptual
 70
     9
177
     3
291
     0
 70
    58
 90
        3
176
     1
 90
        2
176
     1
 90
        0
176
     1
 90
        0
176
     1
 40
0.6
176
     1
 40
30.0
176
     1
 62
     7
420
 16777215
176
     1
 90
        2
176
     1
 90
        2
176
     1
 62
     7
176
     1
 62
   257
176
     1
 90
        1
176
     1
 90
        1
176
     1
 40
179.0
176
     1
 90
        8
176
     1
 62
     7
176
     1
 40
1.0
176
     1
 90
        1
176
     1
 90
        6
176
     1
 90
        2
176
     1
 62
     7
176
     1
 90
        3
176
     1
 90
        0
176
     1
 90
        0
176
     1
290
     0
176
     1
 90
        1
176
     1
 40
0.0
176
     1
 90
        0
176
     1
290
     0
176
     1
290
     1
176
     1
290
     1
176
     1
290
     0
176
     1
290
     0
176
     1
290
     0
176
     1
290
     0
176
     1
290
     0
176
     1
290
     0
176
     1
 90
       50
176
     1
 40
0.0
176
     1
 40
1.0
176
     1
 90
        0
176
     1
 62
    18
420
        0
176
     1
 90
       50
176
     1
 90
        3
176
     1
 62
     5
420
      255
176
     1
290
     0
176
     1
 90
       50
176
     1
 90
       50
176
     1
 90
       50
176
     1
290
     0
176
     1
 90
       50
176
     1
 62
   256
176
     0
 40
1.0
176
     0
 90
        2
176
     1
  1
strokes_ogs.tif
176
     1
290
     0
176
     1
 40
1.0
176
     1
 40
1.0
176
     1
  0
VISUALSTYLE
  5
35
102
{ACAD_REACTORS
330
2A
102
}
330
2A
100
AcDbVisualStyle
  2
Dim
 70
    11
177
     3
291
     1
 70
    58
 90
        2
176
     1
 90
        2
176
     1
 90
        0
176
     1
 90
        0
176
     1
 40
0.6
176
     1
 40
30.0
176
     1
 62
     7
420
 16777215
176
     1
 90
        1
176
     1
 90
        4
176
     1
 62
     7
176
     1
 62
   257
176
     1
 90
        1
176
     1
 90
        1
176
     1
 40
1.0
176
     1
 90
        8
176
     1
 62
     7
176
     1
 40
1.0
176
     1
 90
        1
176
     1
 90
        6
176
     1
 90
        2
176
     1
 62
     7
176
     1
 90
        5
176
     1
 90
        0
176
     1
 90
        0
176
     1
290
     0
176
     1
 90
        1
176
     1
 40
-50.0
176
     1
 90
        0
176
     1
290
     0
176
     1
290
     1
176
     1
290
     1
176
     1
290
     0
176
     1
290
     0
176
     1
290
     0
176
     1
290
     0
176
     1
290
     0
176
     1
290
     0
176
     1
 90
       50
176
     1
 40
0.0
176
     1
 40
1.0
176
     1
 90
        0
176
     1
 62
    18
420
        0
176
     1
 90
       50
176
     1
 90
        3
176
     1
 62
     5
420
      255
176
     1
290
     0
176
     1
 90
       50
176
     1
 90
       50
176
     1
 90
       50
176
     1
290
     0
176
     1
 90
       50
176
     1
 62
   256
176
     0
 40
1.0
176
     0
 90
        2
176
     1
  1
strokes_ogs.tif
176
     1
290
     0
176
     1
 40
1.0
176
     1
 40
1.0
176
     1
  0
VISUALSTYLE
  5
3D
102
{ACAD_REACTORS
330
2A
102
}
330
2A
100
AcDbVisualStyle
  2
EdgeColorOff
 70
    22
177
     3
291
     1
 70
    58
 90
        2
176
     0
 90
        2
176
     0
 90
        0
176
     0
 90
        0
176
     0
 40
0.6
176
     0
 40
30.0
176
     0
 62
     7
420
 16777215
176
     0
 90
        1
176
     0
 90
        4
176
     0
 62
     7
176
     0
 62
   257
176
     0
 90
        1
176
     0
 90
        1
176
     0
 40
1.0
176
     0
 90
        8
176
     2
 62
     7
176
     0
 40
1.0
176
     0
 90
        1
176
     0
 90
        6
176
     0
 90
        2
176
     0
 62
     7
176
     0
 90
        5
176
     0
 90
        0
176
     0
 90
        0
176
     0
290
     0
176
     0
 90
        1
176
     0
 40
0.0
176
     0
 90
        0
176
     0
290
     0
176
     0
290
     1
176
     0
290
     1
176
     0
290
     0
176
     0
290
     0
176
     0
290
     0
176
     0
290
     0
176
     0
290
     0
176
     0
290
     0
176
     0
 90
       50
176
     0
 40
0.0
176
     0
 40
1.0
176
     0
 90
        0
176
     0
 62
    18
420
        0
176
     0
 90
       50
176
     0
 90
        3
176
     0
 62
     5
420
      255
176
     0
290
     0
176
     0
 90
       50
176
     0
 90
       50
176
     0
 90
       50
176
     0
290
     0
176
     0
 90
       50
176
     0
 62
   256
176
     0
 40
1.0
176
     0
 90
        2
176
     0
  1
strokes_ogs.tif
176
     0
290
     0
176
     0
 40
1.0
176
     0
 40
1.0
176
     0
  0
VISUALSTYLE
  5
39
102
{ACAD_REACTORS
330
2A
102
}
330
2A
100
AcDbVisualStyle
  2
Facepattern
 70
    15
177
     3
291
     1
 70
    58
 90
        2
176
     1
 90
        2
176
     1
 90
        0
176
     1
 90
        0
176
     1
 40
0.6
176
     1
 40
30.0
176
     1
 62
     7
420
 16777215
176
     1
 90
        1
176
     1
 90
        4
176
     1
 62
     7
176
     1
 62
   257
176
     1
 90
        1
176
     1
 90
        1
176
     1
 40
1.0
176
     1
 90
        8
176
     1
 62
     7
176
     1
 40
1.0
176
     1
 90
        1
176
     1
 90
        6
176
     1
 90
        2
176
     1
 62
     7
176
     1
 90
        5
176
     1
 90
        0
176
     1
 90
        0
176
     1
290
     0
176
     1
 90
        1
176
     1
 40
0.0
176
     1
 90
        0
176
     1
290
     0
176
     1
290
     1
176
     1
290
     1
176
     1
290
     0
176
     1
290
     0
176
     1
290
     0
176
     1
290
     0
176
     1
290
     0
176
     1
290
     0
176
     1
 90
       50
176
     1
 40
0.0
176
     1
 40
1.0
176
     1
 90
        0
176
     1
 62
    18
420
        0
176
     1
 90
       50
176
     1
 90
        3
176
     1
 62
     5
420
      255
176
     1
290
     0
176
     1
 90
       50
176
     1
 90
       50
176
     1
 90
       50
176
     1
290
     0
176
     1
 90
       50
176
     1
 62
   256
176
     0
 40
1.0
176
     0
 90
        2
176
     1
  1
strokes_ogs.tif
176
     1
290
     0
176
     1
 40
1.0
176
     1
 40
1.0
176
     1
  0
VISUALSTYLE
  5
2B
102
{ACAD_REACTORS
330
2A
102
}
330
2A
100
AcDbVisualStyle
  2
Flat
 70
     0
177
     3
291
     1
 70
    58
 90
        2
176
     1
 90
        1
176
     1
 90
        1
176
     1
 90
        2
176
     1
 40
0.6
176
     1
 40
30.0
176
     1
 62
     7
420
 16777215
176
     1
 90
        0
176
     1
 90
        0
176
     1
 62
     7
176
     1
 62
   257
176
     1
 90
        1
176
     1
 90
        1
176
     1
 40
1.0
176
     1
 90
        8
176
     1
 62
     7
176
     1
 40
1.0
176
     1
 90
        1
176
     1
 90
        6
176
     1
 90
        2
176
     1
 62
     7
176
     1
 90
        5
176
     1
 90
        0
176
     1
 90
        0
176
     1
290
     0
176
     1
 90
       13
176
     1
 40
0.0
176
     1
 90
        0
176
     1
290
     0
176
     1
290
     1
176
     1
290
     1
176
     1
290
     0
176
     1
290
     0
176
     1
290
     0
176
     1
290
     0
176
     1
290
     0
176
     1
290
     0
176
     1
 90
       50
176
     1
 40
0.0
176
     1
 40
1.0
176
     1
 90
        0
176
     1
 62
    18
420
        0
176
     1
 90
       50
176
     1
 90
        3
176
     1
 62
     5
420
      255
176
     1
290
     0
176
     1
 90
       50
176
     1
 90
       50
176
     1
 90
       50
176
     1
290
     0
176
     1
 90
       50
176
     1
 62
   256
176
     0
 40
1.0
176
     0
 90
        2
176
     1
  1
strokes_ogs.tif
176
     1
290
     0
176
     1
 40
1.0
176
     1
 40
1.0
176
     1
  0
VISUALSTYLE
  5
2C
102
{ACAD_REACTORS
330
2A
102
}
330
2A
100
AcDbVisualStyle
  2
FlatWithEdges
 70
     1
177
     3
291
     1
 70
    58
 90
        2
176
     1
 90
        1
176
     1
 90
        1
176
     1
 90
        2
176
     1
 40
0.6
176
     1
 40
30.0
176
     1
 62
     7
420
 16777215
176
     1
 90
        1
176
     1
 90
        0
176
     1
 62
     7
176
     1
 62
   257
176
     1
 90
        1
176
     1
 90
        1
176
     1
 40
1.0
176
     1
 90
        0
176
     1
 62
   257
176
     1
 40
1.0
176
     1
 90
        1
176
     1
 90
        6
176
     1
 90
        2
176
     1
 62
     7
176
     1
 90
        5
176
     1
 90
        0
176
     1
 90
        0
176
     1
290
     0
176
     1
 90
       13
176
     1
 40
0.0
176
     1
 90
        0
176
     1
290
     0
176
     1
290
     1
176
     1
290
     1
176
     1
290
     0
176
     1
290
     0
176
     1
290
     0
176
     1
290
     0
176
     1
290
     0
176
     1
290
     0
176
     1
 90
       50
176
     1
 40
0.0
176
     1
 40
1.0
176
     1
 90
        0
176
     1
 62
    18
420
        0
176
     1
 90
       50
176
     1
 90
        3
176
     1
 62
     5
420
      255
176
     1
290
     0
176
     1
 90
       50
176
     1
 90
       50
176
     1
 90
       50
176
     1
290
     0
176
     1
 90
       50
176
     1
 62
   256
176
     0
 40
1.0
176
     0
 90
        2
176
     1
  1
strokes_ogs.tif
176
     1
290
     0
176
     1
 40
1.0
176
     1
 40
1.0
176
     1
  0
VISUALSTYLE
  5
2D
102
{ACAD_REACTORS
330
2A
102
}
330
2A
100
AcDbVisualStyle
  2
Gouraud
 70
     2
177
     3
291
     1
 70
    58
 90
        2
176
     1
 90
        2
176
     1
 90
        1
176
     1
 90
        2
176
     1
 40
0.6
176
     1
 40
30.0
176
     1
 62
     7
420
 16777215
176
     1
 90
        0
176
     1
 90
        0
176
     1
 62
     7
176
     1
 62
   257
176
     1
 90
        1
176
     1
 90
        1
176
     1
 40
1.0
176
     1
 90
        0
176
     1
 62
     7
176
     1
 40
1.0
176
     1
 90
        1
176
     1
 90
        6
176
     1
 90
        2
176
     1
 62
     7
176
     1
 90
        5
176
     1
 90
        0
176
     1
 90
        0
176
     1
290
     0
176
     1
 90
       13
176
     1
 40
0.0
176
     1
 90
        0
176
     1
290
     0
176
     1
290
     1
176
     1
290
     1
176
     1
290
     0
176
     1
290
     0
176
     1
290
     0
176
     1
290
     0
176
     1
290
     0
176
     1
290
     0
176
     1
 90
       50
176
     1
 40
0.0
176
     1
 40
1.0
176
     1
 90
        0
176
     1
 62
    18
420
        0
176
     1
 90
       50
176
     1
 90
        3
176
     1
 62
     5
420
      255
176
     1
290
     0
176
     1
 90
       50
176
     1
 90
       50
176
     1
 90
       50
176
     1
290
     0
176
     1
 90
       50
176
     1
 62
   256
176
     0
 40
1.0
176
     0
 90
        2
176
     1
  1
strokes_ogs.tif
176
     1
290
     0
176
     1
 40
1.0
176
     1
 40
1.0
176
     1
  0
VISUALSTYLE
  5
2E
102
{ACAD_REACTORS
330
2A
102
}
330
2A
100
AcDbVisualStyle
  2
GouraudWithEdges
 70
     3
177
     3
291
     1
 70
    58
 90
        2
176
     1
 90
        2
176
     1
 90
        1
176
     1
 90
        2
176
     1
 40
0.6
176
     1
 40
30.0
176
     1
 62
     7
420
 16777215
176
     1
 90
        1
176
     1
 90
        0
176
     1
 62
     7
176
     1
 62
   257
176
     1
 90
        1
176
     1
 90
        1
176
     1
 40
1.0
176
     1
 90
        0
176
     1
 62
   257
176
     1
 40
1.0
176
     1
 90
        1
176
     1
 90
        6
176
     1
 90
        2
176
     1
 62
     7
176
     1
 90
        5
176
     1
 90
        0
176
     1
 90
        0
176
     1
290
     0
176
     1
 90
       13
176
     1
 40
0.0
176
     1
 90
        0
176
     1
290
     0
176
     1
290
     1
176
     1
290
     1
176
     1
290
     0
176
     1
290
     0
176
     1
290
     0
176
     1
290
     0
176
     1
290
     0
176
     1
290
     0
176
     1
 90
       50
176
     1
 40
0.0
176
     1
 40
1.0
176
     1
 90
        0
176
     1
 62
    18
420
        0
176
     1
 90
       50
176
     1
 90
        3
176
     1
 62
     5
420
      255
176
     1
290
     0
176
     1
 90
       50
176
     1
 90
       50
176
     1
 90
       50
176
     1
290
     0
176
     1
 90
       50
176
     1
 62
   256
176
     0
 40
1.0
176
     0
 90
        2
176
     1
  1
strokes_ogs.tif
176
     1
290
     0
176
     1
 40
1.0
176
     1
 40
1.0
176
     1
  0
VISUALSTYLE
  5
31
102
{ACAD_REACTORS
330
2A
102
}
330
2A
100
AcDbVisualStyle
  2
Hidden
 70
     6
177
     3
291
     0
 70
    58
 90
        1
176
     1
 90
        2
176
     1
 90
        2
176
     1
 90
        0
176
     1
 40
0.6
176
     1
 40
30.0
176
     1
 62
     7
420
 16777215
176
     1
 90
        2
176
     1
 90
        2
176
     1
 62
     7
176
     1
 62
   257
176
     1
 90
        2
176
     1
 90
        1
176
     1
 40
40.0
176
     1
 90
        0
176
     1
 62
   257
176
     1
 40
1.0
176
     1
 90
        1
176
     1
 90
        6
176
     1
 90
        2
176
     1
 62
     7
176
     1
 90
        3
176
     1
 90
        0
176
     1
 90
        0
176
     1
290
     0
176
     1
 90
        1
176
     1
 40
0.0
176
     1
 90
        0
176
     1
290
     0
176
     1
290
     1
176
     1
290
     1
176
     1
290
     0
176
     1
290
     0
176
     1
290
     0
176
     1
290
     0
176
     1
290
     0
176
     1
290
     0
176
     1
 90
       50
176
     1
 40
0.0
176
     1
 40
1.0
176
     1
 90
        0
176
     1
 62
    18
420
        0
176
     1
 90
       50
176
     1
 90
        3
176
     1
 62
     5
420
      255
176
     1
290
     0
176
     1
 90
       50
176
     1
 90
       50
176
     1
 90
       50
176
     1
290
     0
176
     1
 90
       50
176
     1
 62
   256
176
     0
 40
1.0
176
     0
 90
        2
176
     1
  1
strokes_ogs.tif
176
     1
290
     0
176
     1
 40
1.0
176
     1
 40
1.0
176
     1
  0
VISUALSTYLE
  5
3B
102
{ACAD_REACTORS
330
2A
102
}
330
2A
100
AcDbVisualStyle
  2
JitterOff
 70
    20
177
     3
291
     1
 70
    58
 90
        2
176
     0
 90
        2
176
     0
 90
        0
176
     0
 90
        0
176
     0
 40
0.6
176
     0
 40
30.0
176
     0
 62
     7
420
 16777215
176
     0
 90
        1
176
     0
 90
        4
176
     0
 62
     7
176
     0
 62
   257
176
     0
 90
        1
176
     0
 90
        1
176
     0
 40
1.0
176
     0
 90
       10
176
     2
 62
     7
176
     0
 40
1.0
176
     0
 90
        1
176
     0
 90
        6
176
     0
 90
        2
176
     0
 62
     7
176
     0
 90
        5
176
     0
 90
        0
176
     0
 90
        0
176
     0
290
     0
176
     0
 90
        1
176
     0
 40
0.0
176
     0
 90
        0
176
     0
290
     0
176
     0
290
     1
176
     0
290
     1
176
     0
290
     0
176
     0
290
     0
176
     0
290
     0
176
     0
290
     0
176
     0
290
     0
176
     0
290
     0
176
     0
 90
       50
176
     0
 40
0.0
176
     0
 40
1.0
176
     0
 90
        0
176
     0
 62
    18
420
        0
176
     0
 90
       50
176
     0
 90
        3
176
     0
 62
     5
420
      255
176
     0
290
     0
176
     0
 90
       50
176
     0
 90
       50
176
     0
 90
       50
176
     0
290
     0
176
     0
 90
       50
176
     0
 62
   256
176
     0
 40
1.0
176
     0
 90
        2
176
     0
  1
strokes_ogs.tif
176
     0
290
     0
176
     0
 40
1.0
176
     0
 40
1.0
176
     0
  0
VISUALSTYLE
  5
38
102
{ACAD_REACTORS
330
2A
102
}
330
2A
100
AcDbVisualStyle
  2
Linepattern
 70
    14
177
     3
291
     1
 70
    58
 90
        2
176
     1
 90
        2
176
     1
 90
        0
176
     1
 90
        0
176
     1
 40
0.6
176
     1
 40
30.0
176
     1
 62
     7
420
 16777215
176
     1
 90
        1
176
     1
 90
        4
176
     1
 62
     7
176
     1
 62
   257
176
     1
 90
        7
176
     1
 90
        7
176
     1
 40
1.0
176
     1
 90
        8
176
     1
 62
     7
176
     1
 40
1.0
176
     1
 90
        1
176
     1
 90
        6
176
     1
 90
        2
176
     1
 62
     7
176
     1
 90
        5
176
     1
 90
        0
176
     1
 90
        0
176
     1
290
     0
176
     1
 90
        1
176
     1
 40
0.0
176
     1
 90
        0
176
     1
290
     0
176
     1
290
     1
176
     1
290
     1
176
     1
290
     0
176
     1
290
     0
176
     1
290
     0
176
     1
290
     0
176
     1
290
     0
176
     1
290
     0
176
     1
 90
       50
176
     1
 40
0.0
176
     1
 40
1.0
176
     1
 90
        0
176
     1
 62
    18
420
        0
176
     1
 90
       50
176
     1
 90
        3
176
     1
 62
     5
420
      255
176
     1
290
     0
176
     1
 90
       50
176
     1
 90
       50
176
     1
 90
       50
176
     1
290
     0
176
     1
 90
       50
176
     1
 62
   256
176
     0
 40
1.0
176
     0
 90
        2
176
     1
  1
strokes_ogs.tif
176
     1
290
     0
176
     1
 40
1.0
176
     1
 40
1.0
176
     1
  0
VISUALSTYLE
  5
3C
102
{ACAD_REACTORS
330
2A
102
}
330
2A
100
AcDbVisualStyle
  2
OverhangOff
 70
    21
177
     3
291
     1
 70
    58
 90
        2
176
     0
 90
        2
176
     0
 90
        0
176
     0
 90
        0
176
     0
 40
0.6
176
     0
 40
30.0
176
     0
 62
     7
420
 16777215
176
     0
 90
        1
176
     0
 90
        4
176
     0
 62
     7
176
     0
 62
   257
176
     0
 90
        1
176
     0
 90
        1
176
     0
 40
1.0
176
     0
 90
        9
176
     2
 62
     7
176
     0
 40
1.0
176
     0
 90
        1
176
     0
 90
        6
176
     0
 90
        2
176
     0
 62
     7
176
     0
 90
        5
176
     0
 90
        0
176
     0
 90
        0
176
     0
290
     0
176
     0
 90
        1
176
     0
 40
0.0
176
     0
 90
        0
176
     0
290
     0
176
     0
290
     1
176
     0
290
     1
176
     0
290
     0
176
     0
290
     0
176
     0
290
     0
176
     0
290
     0
176
     0
290
     0
176
     0
290
     0
176
     0
 90
       50
176
     0
 40
0.0
176
     0
 40
1.0
176
     0
 90
        0
176
     0
 62
    18
420
        0
176
     0
 90
       50
176
     0
 90
        3
176
     0
 62
     5
420
      255
176
     0
290
     0
176
     0
 90
       50
176
     0
 90
       50
176
     0
 90
       50
176
     0
290
     0
176
     0
 90
       50
176
     0
 62
   256
176
     0
 40
1.0
176
     0
 90
        2
176
     0
  1
strokes_ogs.tif
176
     0
290
     0
176
     0
 40
1.0
176
     0
 40
1.0
176
     0
  0
VISUALSTYLE
  5
33
102
{ACAD_REACTORS
330
2A
102
}
330
2A
100
AcDbVisualStyle
  2
Realistic
 70
     8
177
     3
291
     0
 70
    58
 90
        2
176
     1
 90
        3
176
     1
 90
        0
176
     1
 90
        2
176
     1
 40
0.6
176
     1
 40
30.0
176
     1
 62
     7
420
 16777215
176
     1
 90
        0
176
     1
 90
        0
176
     1
 62
     7
176
     1
 62
   257
176
     1
 90
        1
176
     1
 90
        1
176
     1
 40
1.0
176
     1
 90
        8
176
     1
 62
   257
176
     1
 40
1.0
176
     1
 90
        1
176
     1
 90
        6
176
     1
 90
        2
176
     1
 62
     7
176
     1
 90
        3
176
     1
 90
        0
176
     1
 90
        0
176
     1
290
     0
176
     1
 90
       13
176
     1
 40
0.0
176
     1
 90
        0
176
     1
290
     0
176
     1
290
     1
176
     1
290
     1
176
     1
290
     0
176
     1
290
     0
176
     1
290
     0
176
     1
290
     0
176
     1
290
     0
176
     1
290
     0
176
     1
 90
       50
176
     1
 40
0.0
176
     1
 40
1.0
176
     1
 90
        0
176
     1
 62
    18
420
        0
176
     1
 90
       50
176
     1
 90
        3
176
     1
 62
     5
420
      255
176
     1
290
     0
176
     1
 90
       50
176
     1
 90
       50
176
     1
 90
       50
176
     1
290
     0
176
     1
 90
       50
176
     1
 62
   256
176
     0
 40
1.0
176
     0
 90
        2
176
     1
  1
strokes_ogs.tif
176
     1
290
     0
176
     1
 40
1.0
176
     1
 40
1.0
176
     1
  0
VISUALSTYLE
  5
42
102
{ACAD_REACTORS
330
2A
102
}
330
2A
100
AcDbVisualStyle
  2
Shaded
 70
    27
177
     3
291
     0
 70
    58
 90
        2
176
     1
 90
        2
176
     1
 90
        1
176
     1
 90
        2
176
     1
 40
0.6
176
     1
 40
30.0
176
     1
 62
     7
420
 16777215
176
     1
 90
        0
176
     1
 90
        4
176
     1
 62
     7
176
     1
 62
   257
176
     1
 90
        1
176
     1
 90
        1
176
     1
 40
1.0
176
     1
 90
        8
176
     1
 62
   257
176
     1
 40
1.0
176
     1
 90
        1
176
     1
 90
        6
176
     1
 90
        2
176
     1
 62
     8
420
  7895160
176
     1
 90
        3
176
     1
 90
        0
176
     1
 90
        0
176
     1
290
     0
176
     1
 90
        5
176
     1
 40
0.0
176
     1
 90
        0
176
     1
290
     0
176
     1
290
     1
176
     1
290
     1
176
     1
290
     0
176
     1
290
     0
176
     1
290
     0
176
     1
290
     0
176
     1
290
     0
176
     1
290
     0
176
     1
 90
       50
176
     1
 40
0.0
176
     1
 40
1.0
176
     1
 90
        0
176
     1
 62
    18
420
        0
176
     1
 90
       50
176
     1
 90
        3
176
     1
 62
     5
420
      255
176
     1
290
     0
176
     1
 90
       50
176
     1
 90
       50
176
     1
 90
       50
176
     1
290
     0
176
     1
 90
       50
176
     1
 62
   256
176
     0
 40
1.0
176
     0
 90
        2
176
     1
  1
strokes_ogs.tif
176
     1
290
     0
176
     1
 40
1.0
176
     1
 40
1.0
176
     1
  0
VISUALSTYLE
  5
41
102
{ACAD_REACTORS
330
2A
102
}
330
2A
100
AcDbVisualStyle
  2
Shaded with edges
 70
    26
177
     3
291
     0
 70
    58
 90
        2
176
     1
 90
        2
176
     1
 90
        1
176
     1
 90
        2
176
     1
 40
0.6
176
     1
 40
30.0
176
     1
 62
     7
420
 16777215
176
     1
 90
        1
176
     1
 90
       10
176
     1
 62
     7
176
     1
 62
   257
176
     1
 90
        2
176
     1
 90
        1
176
     1
 40
1.0
176
     1
 90
        8
176
     1
 62
   257
176
     1
 40
1.0
176
     1
 90
        1
176
     1
 90
        6
176
     1
 90
        2
176
     1
 62
     7
176
     1
 90
        3
176
     1
 90
        0
176
     1
 90
        0
176
     1
290
     0
176
     1
 90
        5
176
     1
 40
0.0
176
     1
 90
        0
176
     1
290
     0
176
     1
290
     1
176
     1
290
     1
176
     1
290
     0
176
     1
290
     0
176
     1
290
     0
176
     1
290
     0
176
     1
290
     0
176
     1
290
     0
176
     1
 90
       50
176
     1
 40
0.0
176
     1
 40
1.0
176
     1
 90
        0
176
     1
 62
    18
420
        0
176
     1
 90
       50
176
     1
 90
        3
176
     1
 62
     5
420
      255
176
     1
290
     0
176
     1
 90
       50
176
     1
 90
       50
176
     1
 90
       50
176
     1
290
     0
176
     1
 90
       50
176
     1
 62
   256
176
     0
 40
1.0
176
     0
 90
        2
176
     1
  1
strokes_ogs.tif
176
     1
290
     0
176
     1
 40
1.0
176
     1
 40
1.0
176
     1
  0
VISUALSTYLE
  5
3E
102
{ACAD_REACTORS
330
2A
102
}
330
2A
100
AcDbVisualStyle
  2
Shades of Gray
 70
    23
177
     3
291
     0
 70
    58
 90
        2
176
     1
 90
        2
176
     1
 90
        3
176
     1
 90
        0
176
     1
 40
0.6
176
     1
 40
30.0
176
     1
 62
     7
420
 16777215
176
     1
 90
        2
176
     1
 90
        2
176
     1
 62
     7
176
     1
 62
     7
176
     1
 90
        1
176
     1
 90
        1
176
     1
 40
40.0
176
     1
 90
        8
176
     1
 62
     7
176
     1
 40
1.0
176
     1
 90
        1
176
     1
 90
        6
176
     1
 90
        2
176
     1
 62
     7
176
     1
 90
        3
176
     1
 90
        0
176
     1
 90
        0
176
     1
290
     0
176
     1
 90
        1
176
     1
 40
0.0
176
     1
 90
        0
176
     1
290
     0
176
     1
290
     1
176
     1
290
     1
176
     1
290
     0
176
     1
290
     0
176
     1
290
     0
176
     1
290
     0
176
     1
290
     0
176
     1
290
     0
176
     1
 90
       50
176
     1
 40
0.0
176
     1
 40
1.0
176
     1
 90
        0
176
     1
 62
    18
420
        0
176
     1
 90
       50
176
     1
 90
        3
176
     1
 62
     5
420
      255
176
     1
290
     0
176
     1
 90
       50
176
     1
 90
       50
176
     1
 90
       50
176
     1
290
     0
176
     1
 90
       50
176
     1
 62
   256
176
     0
 40
1.0
176
     0
 90
        2
176
     1
  1
strokes_ogs.tif
176
     1
290
     0
176
     1
 40
1.0
176
     1
 40
1.0
176
     1
  0
VISUALSTYLE
  5
3F
102
{ACAD_REACTORS
330
2A
102
}
330
2A
100
AcDbVisualStyle
  2
Sketchy
 70
    24
177
     3
291
     0
 70
    58
 90
        1
176
     1
 90
        2
176
     1
 90
        2
176
     1
 90
        0
176
     1
 40
0.6
176
     1
 40
30.0
176
     1
 62
     7
420
 16777215
176
     1
 90
        2
176
     1
 90
        2
176
     1
 62
     7
176
     1
 62
     7
176
     1
 90
        1
176
     1
 90
        1
176
     1
 40
40.0
176
     1
 90
       11
176
     1
 62
     7
176
     1
 40
1.0
176
     1
 90
        1
176
     1
 90
        6
176
     1
 90
        2
176
     1
 62
     7
176
     1
 90
        6
176
     1
 90
        0
176
     1
 90
        0
176
     1
290
     0
176
     1
 90
        1
176
     1
 40
0.0
176
     1
 90
        0
176
     1
290
     0
176
     1
290
     1
176
     1
290
     1
176
     1
290
     0
176
     1
290
     0
176
     1
290
     0
176
     1
290
     0
176
     1
290
     0
176
     1
290
     0
176
     1
 90
       50
176
     1
 40
0.0
176
     1
 40
1.0
176
     1
 90
        0
176
     1
 62
    18
420
        0
176
     1
 90
       50
176
     1
 90
        3
176
     1
 62
     5
420
      255
176
     1
290
     0
176
     1
 90
       50
176
     1
 90
       50
176
     1
 90
       50
176
     1
290
     0
176
     1
 90
       50
176
     1
 62
   256
176
     0
 40
1.0
176
     0
 90
        2
176
     1
  1
strokes_ogs.tif
176
     1
290
     0
176
     1
 40
1.0
176
     1
 40
1.0
176
     1
  0
VISUALSTYLE
  5
37
102
{ACAD_REACTORS
330
2A
102
}
330
2A
100
AcDbVisualStyle
  2
Thicken
 70
    13
177
     3
291
     1
 70
    58
 90
        2
176
     1
 90
        2
176
     1
 90
        0
176
     1
 90
        0
176
     1
 40
0.6
176
     1
 40
30.0
176
     1
 62
     7
420
 16777215
176
     1
 90
        1
176
     1
 90
        4
176
     1
 62
     7
176
     1
 62
   257
176
     1
 90
        1
176
     1
 90
        1
176
     1
 40
1.0
176
     1
 90
       12
176
     1
 62
     7
176
     1
 40
1.0
176
     1
 90
        1
176
     1
 90
        6
176
     1
 90
        2
176
     1
 62
     7
176
     1
 90
        5
176
     1
 90
        0
176
     1
 90
        0
176
     1
290
     0
176
     1
 90
        1
176
     1
 40
0.0
176
     1
 90
        0
176
     1
290
     0
176
     1
290
     1
176
     1
290
     1
176
     1
290
     0
176
     1
290
     0
176
     1
290
     0
176
     1
290
     0
176
     1
290
     0
176
     1
290
     0
176
     1
 90
       50
176
     1
 40
0.0
176
     1
 40
1.0
176
     1
 90
        0
176
     1
 62
    18
420
        0
176
     1
 90
       50
176
     1
 90
        3
176
     1
 62
     5
420
      255
176
     1
290
     0
176
     1
 90
       50
176
     1
 90
       50
176
     1
 90
       50
176
     1
290
     0
176
     1
 90
       50
176
     1
 62
   256
176
     0
 40
1.0
176
     0
 90
        2
176
     1
  1
strokes_ogs.tif
176
     1
290
     0
176
     1
 40
1.0
176
     1
 40
1.0
176
     1
  0
VISUALSTYLE
  5
30
102
{ACAD_REACTORS
330
2A
102
}
330
2A
100
AcDbVisualStyle
  2
Wireframe
 70
     5
177
     3
291
     0
 70
    58
 90
        0
176
     1
 90
        2
176
     1
 90
        0
176
     1
 90
        0
176
     1
 40
0.6
176
     1
 40
30.0
176
     1
 62
     7
420
 16777215
176
     1
 90
        1
176
     1
 90
        4
176
     1
 62
     7
176
     1
 62
   257
176
     1
 90
        1
176
     1
 90
        1
176
     1
 40
1.0
176
     1
 90
        0
176
     1
 62
   257
176
     1
 40
1.0
176
     1
 90
        1
176
     1
 90
        6
176
     1
 90
        2
176
     1
 62
     7
176
     1
 90
        3
176
     1
 90
        0
176
     1
 90
        0
176
     1
290
     0
176
     1
 90
        1
176
     1
 40
0.0
176
     1
 90
        0
176
     1
290
     0
176
     1
290
     1
176
     1
290
     1
176
     1
290
     0
176
     1
290
     0
176
     1
290
     0
176
     1
290
     0
176
     1
290
     0
176
     1
290
     0
176
     1
 90
       50
176
     1
 40
0.0
176
     1
 40
1.0
176
     1
 90
        0
176
     1
 62
    18
420
        0
176
     1
 90
       50
176
     1
 90
        3
176
     1
 62
     5
420
      255
176
     1
290
     0
176
     1
 90
       50
176
     1
 90
       50
176
     1
 90
       50
176
     1
290
     0
176
     1
 90
       50
176
     1
 62
   256
176
     0
 40
1.0
176
     0
 90
        2
176
     1
  1
strokes_ogs.tif
176
     1
290
     0
176
     1
 40
1.0
176
     1
 40
1.0
176
     1
  0
VISUALSTYLE
  5
40
102
{ACAD_REACTORS
330
2A
102
}
330
2A
100
AcDbVisualStyle
  2
X-Ray
 70
    25
177
     3
291
     0
 70
    58
 90
        2
176
     1
 90
        2
176
     1
 90
        1
176
     1
 90
        1
176
     1
 40
0.5
176
     1
 40
30.0
176
     1
 62
     7
420
 16777215
176
     1
 90
        1
176
     1
 90
        0
176
     1
 62
     7
176
     1
 62
   257
176
     1
 90
        1
176
     1
 90
        1
176
     1
 40
1.0
176
     1
 90
        8
176
     1
 62
     7
176
     1
 40
1.0
176
     1
 90
        1
176
     1
 90
        6
176
     1
 90
        2
176
     1
 62
     7
176
     1
 90
        3
176
     1
 90
        0
176
     1
 90
        0
176
     1
290
     0
176
     1
 90
       13
176
     1
 40
0.0
176
     1
 90
        0
176
     1
290
     0
176
     1
290
     1
176
     1
290
     1
176
     1
290
     0
176
     1
290
     0
176
     1
290
     0
176
     1
290
     0
176
     1
290
     0
176
     1
290
     0
176
     1
 90
       50
176
     1
 40
0.0
176
     1
 40
1.0
176
     1
 90
        0
176
     1
 62
    18
420
        0
176
     1
 90
       50
176
     1
 90
        3
176
     1
 62
     5
420
      255
176
     1
290
     0
176
     1
 90
       50
176
     1
 90
       50
176
     1
 90
       50
176
     1
290
     0
176
     1
 90
       50
176
     1
 62
   256
176
     0
 40
1.0
176
     0
 90
        2
176
     1
  1
strokes_ogs.tif
176
     1
290
     0
176
     1
 40
1.0
176
     1
 40
1.0
176
     1
  0
DICTIONARYVAR
  5
5FA
102
{ACAD_REACTORS
330
5F9
102
}
330
5F9
100
DictionaryVariables
280
     0
  1
1:1
  0
DICTIONARYVAR
  5
5FF
102
{ACAD_REACTORS
330
5F9
102
}
330
5F9
100
DictionaryVariables
280
     0
  1
Standard
  0
DICTIONARYVAR
  5
5FE
102
{ACAD_REACTORS
330
5F9
102
}
330
5F9
100
DictionaryVariables
280
     0
  1
Standard
  0
DICTIONARY
  5
5FB
330
6A
100
AcDbDictionary
280
     1
281
     1
  3
ACAD_ROUNDTRIP_2008_TABLESTYLE_CELLSTYLEMAP
360
5FC
  0
CELLSTYLEMAP
  5
5FC
102
{ACAD_REACTORS
330
5FB
102
}
330
5FB
100
AcDbCellStyleMap
 90
        3
300
CELLSTYLE
  1
TABLEFORMAT_BEGIN
 90
        5
170
     1
 91
        0
 92
    32768
 62
   257
 93
        1
300
CONTENTFORMAT
  1
CONTENTFORMAT_BEGIN
 90
        0
 91
        0
 92
        4
 93
        0
300

 40
0.0
140
1.0
 94
        5
 62
     0
340
11
144
0.25
309
CONTENTFORMAT_END
171
     1
301
MARGIN
  1
CELLMARGIN_BEGIN
 40
0.06
 40
0.06
 40
0.06
 40
0.06
 40
0.06
 40
0.06
309
CELLMARGIN_END
 94
        6
 95
        1
302
GRIDFORMAT
  1
GRIDFORMAT_BEGIN
 90
        0
 91
        1
 62
     0
 92
       -2
340
14
 93
        0
 40
0.045
309
GRIDFORMAT_END
 95
        2
302
GRIDFORMAT
  1
GRIDFORMAT_BEGIN
 90
        0
 91
        1
 62
     0
 92
       -2
340
14
 93
        0
 40
0.045
309
GRIDFORMAT_END
 95
        4
302
GRIDFORMAT
  1
GRIDFORMAT_BEGIN
 90
        0
 91
        1
 62
     0
 92
       -2
340
14
 93
        0
 40
0.045
309
GRIDFORMAT_END
 95
        8
302
GRIDFORMAT
  1
GRIDFORMAT_BEGIN
 90
        0
 91
        1
 62
     0
 92
       -2
340
14
 93
        0
 40
0.045
309
GRIDFORMAT_END
 95
       16
302
GRIDFORMAT
  1
GRIDFORMAT_BEGIN
 90
        0
 91
        1
 62
     0
 92
       -2
340
14
 93
        0
 40
0.045
309
GRIDFORMAT_END
 95
       32
302
GRIDFORMAT
  1
GRIDFORMAT_BEGIN
 90
        0
 91
        1
 62
     0
 92
       -2
340
14
 93
        0
 40
0.045
309
GRIDFORMAT_END
309
TABLEFORMAT_END
  1
CELLSTYLE_BEGIN
 90
        1
 91
        1
300
_TITLE
309
CELLSTYLE_END
300
CELLSTYLE
  1
TABLEFORMAT_BEGIN
 90
        5
170
     1
 91
        0
 92
        0
 62
   257
 93
        1
300
CONTENTFORMAT
  1
CONTENTFORMAT_BEGIN
 90
        0
 91
        0
 92
        4
 93
        0
300

 40
0.0
140
1.0
 94
        5
 62
     0
340
11
144
0.18
309
CONTENTFORMAT_END
171
     1
301
MARGIN
  1
CELLMARGIN_BEGIN
 40
0.06
 40
0.06
 40
0.06
 40
0.06
 40
0.06
 40
0.06
309
CELLMARGIN_END
 94
        6
 95
        1
302
GRIDFORMAT
  1
GRIDFORMAT_BEGIN
 90
        0
 91
        1
 62
     0
 92
       -2
340
14
 93
        0
 40
0.045
309
GRIDFORMAT_END
 95
        2
302
GRIDFORMAT
  1
GRIDFORMAT_BEGIN
 90
        0
 91
        1
 62
     0
 92
       -2
340
14
 93
        0
 40
0.045
309
GRIDFORMAT_END
 95
        4
302
GRIDFORMAT
  1
GRIDFORMAT_BEGIN
 90
        0
 91
        1
 62
     0
 92
       -2
340
14
 93
        0
 40
0.045
309
GRIDFORMAT_END
 95
        8
302
GRIDFORMAT
  1
GRIDFORMAT_BEGIN
 90
        0
 91
        1
 62
     0
 92
       -2
340
14
 93
        0
 40
0.045
309
GRIDFORMAT_END
 95
       16
302
GRIDFORMAT
  1
GRIDFORMAT_BEGIN
 90
        0
 91
        1
 62
     0
 92
       -2
340
14
 93
        0
 40
0.045
309
GRIDFORMAT_END
 95
       32
302
GRIDFORMAT
  1
GRIDFORMAT_BEGIN
 90
        0
 91
        1
 62
     0
 92
       -2
340
14
 93
        0
 40
0.045
309
GRIDFORMAT_END
309
TABLEFORMAT_END
  1
CELLSTYLE_BEGIN
 90
        2
 91
        1
300
_HEADER
309
CELLSTYLE_END
300
CELLSTYLE
  1
TABLEFORMAT_BEGIN
 90
        5
170
     1
 91
        0
 92
        0
 62
   257
 93
        1
300
CONTENTFORMAT
  1
CONTENTFORMAT_BEGIN
 90
        0
 91
        0
 92
        4
 93
        0
300

 40
0.0
140
1.0
 94
        2
 62
     0
340
11
144
0.18
309
CONTENTFORMAT_END
171
     1
301
MARGIN
  1
CELLMARGIN_BEGIN
 40
0.06
 40
0.06
 40
0.06
 40
0.06
 40
0.06
 40
0.06
309
CELLMARGIN_END
 94
        6
 95
        1
302
GRIDFORMAT
  1
GRIDFORMAT_BEGIN
 90
        0
 91
        1
 62
     0
 92
       -2
340
14
 93
        0
 40
0.045
309
GRIDFORMAT_END
 95
        2
302
GRIDFORMAT
  1
GRIDFORMAT_BEGIN
 90
        0
 91
        1
 62
     0
 92
       -2
340
14
 93
        0
 40
0.045
309
GRIDFORMAT_END
 95
        4
302
GRIDFORMAT
  1
GRIDFORMAT_BEGIN
 90
        0
 91
        1
 62
     0
 92
       -2
340
14
 93
        0
 40
0.045
309
GRIDFORMAT_END
 95
        8
302
GRIDFORMAT
  1
GRIDFORMAT_BEGIN
 90
        0
 91
        1
 62
     0
 92
       -2
340
14
 93
        0
 40
0.045
309
GRIDFORMAT_END
 95
       16
302
GRIDFORMAT
  1
GRIDFORMAT_BEGIN
 90
        0
 91
        1
 62
     0
 92
       -2
340
14
 93
        0
 40
0.045
309
GRIDFORMAT_END
 95
       32
302
GRIDFORMAT
  1
GRIDFORMAT_BEGIN
 90
        0
 91
        1
 62
     0
 92
       -2
340
14
 93
        0
 40
0.045
309
GRIDFORMAT_END
309
TABLEFORMAT_END
  1
CELLSTYLE_BEGIN
 90
        3
 91
        2
300
_DATA
309
CELLSTYLE_END
  0
ENDSEC
  0
EOF
