  0
SECTION
  2
HEADER
  9
$ACADVER
  1
AC1021
  9
$ACADMAINTVER
 70
    25
  9
$DWGCODEPAGE
  3
ANSI_932
  9
$INSBASE
 10
0.0
 20
0.0
 30
0.0
  9
$EXTMIN
 10
0.0
 20
0.0
 30
0.0
  9
$EXTMAX
 10
297.0
 20
210.0
 30
0.0
  9
$LIMMIN
 10
0.0
 20
0.0
  9
$LIMMAX
 10
297.0
 20
210.0
  9
$ORTHOMODE
 70
     0
  9
$REGENMODE
 70
     1
  9
$FILLMODE
 70
     1
  9
$QTEXTMODE
 70
     0
  9
$MIRRTEXT
 70
     1
  9
$LTSCALE
 40
0.25
  9
$ATTMODE
 70
     1
  9
$TEXTSIZE
 40
5.0
  9
$TRACEWID
 40
0.05
  9
$TEXTSTYLE
  7
Standard
  9
$CLAYER
  8
0
  9
$CELTYPE
  6
ByLayer
  9
$CECOLOR
 62
   256
  9
$CELTSCALE
 40
1.0
  9
$DISPSILH
 70
     0
  9
$DIMSCALE
 40
1.0
  9
$DIMASZ
 40
4.0
  9
$DIMEXO
 40
2.0
  9
$DIMDLI
 40
10.0
  9
$DIMRND
 40
0.0
  9
$DIMDLE
 40
0.0
  9
$DIMEXE
 40
2.0
  9
$DIMTP
 40
0.0
  9
$DIMTM
 40
0.0
  9
$DIMTXT
 40
4.0
  9
$DIMCEN
 40
0.09
  9
$DIMTSZ
 40
0.0
  9
$DIMTOL
 70
     0
  9
$DIMLIM
 70
     0
  9
$DIMTIH
 70
     0
  9
$DIMTOH
 70
     0
  9
$DIMSE1
 70
     0
  9
$DIMSE2
 70
     0
  9
$DIMTAD
 70
     3
  9
$DIMZIN
 70
     8
  9
$DIMBLK
  1

  9
$DIMASO
 70
     1
  9
$DIMSHO
 70
     1
  9
$DIMPOST
  1

  9
$DIMAPOST
  1

  9
$DIMALT
 70
     0
  9
$DIMALTD
 70
     2
  9
$DIMALTF
 40
25.4
  9
$DIMLFAC
 40
1.0
  9
$DIMTOFL
 70
     1
  9
$DIMTVP
 40
0.7
  9
$DIMTIX
 70
     0
  9
$DIMSOXD
 70
     0
  9
$DIMSAH
 70
     0
  9
$DIMBLK1
  1

  9
$DIMBLK2
  1

  9
$DIMSTYLE
  2
Standard
  9
$DIMCLRD
 70
     0
  9
$DIMCLRE
 70
     0
  9
$DIMCLRT
 70
     0
  9
$DIMTFAC
 40
0.5
  9
$DIMGAP
 40
0.09
  9
$DIMJUST
 70
     0
  9
$DIMSD1
 70
     0
  9
$DIMSD2
 70
     0
  9
$DIMTOLJ
 70
     1
  9
$DIMTZIN
 70
     8
  9
$DIMALTZ
 70
     0
  9
$DIMALTTZ
 70
     0
  9
$DIMUPT
 70
     1
  9
$DIMDEC
 70
     2
  9
$DIMTDEC
 70
     4
  9
$DIMALTU
 70
     2
  9
$DIMALTTD
 70
     2
  9
$DIMTXSTY
  7
Standard
  9
$DIMAUNIT
 70
     0
  9
$DIMADEC
 70
     0
  9
$DIMALTRND
 40
0.0
  9
$DIMAZIN
 70
     0
  9
$DIMDSEP
 70
    46
  9
$DIMATFIT
 70
     2
  9
$DIMFRAC
 70
     0
  9
$DIMLDRBLK
  1

  9
$DIMLUNIT
 70
     2
  9
$DIMLWD
 70
    -2
  9
$DIMLWE
 70
    -2
  9
$DIMTMOVE
 70
     2
  9
$DIMFXL
 40
1.0
  9
$DIMFXLON
 70
     0
  9
$DIMJOGANG
 40
0.7853981633974483
  9
$DIMTFILL
 70
     0
  9
$DIMTFILLCLR
 70
     0
  9
$DIMARCSYM
 70
     0
  9
$DIMLTYPE
  6

  9
$DIMLTEX1
  6

  9
$DIMLTEX2
  6

  9
$LUNITS
 70
     2
  9
$LUPREC
 70
     4
  9
$SKETCHINC
 40
0.1
  9
$FILLETRAD
 40
0.5
  9
$AUNITS
 70
     0
  9
$AUPREC
 70
     0
  9
$MENU
  1
.
  9
$ELEVATION
 40
0.0
  9
$PELEVATION
 40
0.0
  9
$THICKNESS
 40
0.0
  9
$LIMCHECK
 70
     0
  9
$CHAMFERA
 40
0.5
  9
$CHAMFERB
 40
0.5
  9
$CHAMFERC
 40
1.0
  9
$CHAMFERD
 40
0.0
  9
$SKPOLY
 70
     0
  9
$TDCREATE
 40
2457093.785648148
  9
$TDUCREATE
 40
2457093.410648148
  9
$TDUPDATE
 40
2457093.785648148
  9
$TDUUPDATE
 40
2457093.410648148
  9
$TDINDWG
 40
0.0000000116
  9
$TDUSRTIMER
 40
0.0000000116
  9
$USRTIMER
 70
     1
  9
$ANGBASE
 50
0.0
  9
$ANGDIR
 70
     0
  9
$PDMODE
 70
     0
  9
$PDSIZE
 40
0.0
  9
$PLINEWID
 40
0.0
  9
$SPLFRAME
 70
     0
  9
$SPLINETYPE
 70
     6
  9
$SPLINESEGS
 70
     8
  9
$HANDSEED
  5
412
  9
$SURFTAB1
 70
     6
  9
$SURFTAB2
 70
     6
  9
$SURFTYPE
 70
     6
  9
$SURFU
 70
     6
  9
$SURFV
 70
     6
  9
$UCSBASE
  2

  9
$UCSNAME
  2

  9
$UCSORG
 10
0.0
 20
0.0
 30
0.0
  9
$UCSXDIR
 10
1.0
 20
0.0
 30
0.0
  9
$UCSYDIR
 10
0.0
 20
1.0
 30
0.0
  9
$UCSORTHOREF
  2

  9
$UCSORTHOVIEW
 70
     0
  9
$UCSORGTOP
 10
0.0
 20
0.0
 30
0.0
  9
$UCSORGBOTTOM
 10
0.0
 20
0.0
 30
0.0
  9
$UCSORGLEFT
 10
0.0
 20
0.0
 30
0.0
  9
$UCSORGRIGHT
 10
0.0
 20
0.0
 30
0.0
  9
$UCSORGFRONT
 10
0.0
 20
0.0
 30
0.0
  9
$UCSORGBACK
 10
0.0
 20
0.0
 30
0.0
  9
$PUCSBASE
  2

  9
$PUCSNAME
  2

  9
$PUCSORG
 10
0.0
 20
0.0
 30
0.0
  9
$PUCSXDIR
 10
1.0
 20
0.0
 30
0.0
  9
$PUCSYDIR
 10
0.0
 20
1.0
 30
0.0
  9
$PUCSORTHOREF
  2

  9
$PUCSORTHOVIEW
 70
     0
  9
$PUCSORGTOP
 10
0.0
 20
0.0
 30
0.0
  9
$PUCSORGBOTTOM
 10
0.0
 20
0.0
 30
0.0
  9
$PUCSORGLEFT
 10
0.0
 20
0.0
 30
0.0
  9
$PUCSORGRIGHT
 10
0.0
 20
0.0
 30
0.0
  9
$PUCSORGFRONT
 10
0.0
 20
0.0
 30
0.0
  9
$PUCSORGBACK
 10
0.0
 20
0.0
 30
0.0
  9
$USERI1
 70
     0
  9
$USERI2
 70
     0
  9
$USERI3
 70
     0
  9
$USERI4
 70
     0
  9
$USERI5
 70
     0
  9
$USERR1
 40
0.0
  9
$USERR2
 40
0.0
  9
$USERR3
 40
0.0
  9
$USERR4
 40
0.0
  9
$USERR5
 40
0.0
  9
$WORLDVIEW
 70
     1
  9
$SHADEDGE
 70
     3
  9
$SHADEDIF
 70
    70
  9
$TILEMODE
 70
     1
  9
$MAXACTVP
 70
    64
  9
$PINSBASE
 10
0.0
 20
0.0
 30
0.0
  9
$PLIMCHECK
 70
     0
  9
$PEXTMIN
 10
0.0
 20
0.0
 30
0.0
  9
$PEXTMAX
 10
297.0
 20
210.0
 30
0.0
  9
$PLIMMIN
 10
0.0
 20
0.0
  9
$PLIMMAX
 10
297.0
 20
210.0
  9
$UNITMODE
 70
     0
  9
$VISRETAIN
 70
     1
  9
$PLINEGEN
 70
     0
  9
$PSLTSCALE
 70
     1
  9
$TREEDEPTH
 70
  3020
  9
$CMLSTYLE
  2
Standard
  9
$CMLJUST
 70
     0
  9
$CMLSCALE
 40
1.0
  9
$PROXYGRAPHICS
 70
     1
  9
$MEASUREMENT
 70
     1
  9
$CELWEIGHT
370
    -1
  9
$ENDCAPS
280
     0
  9
$JOINSTYLE
280
     0
  9
$LWDISPLAY
290
     0
  9
$INSUNITS
 70
     4
  9
$HYPERLINKBASE
  1

  9
$STYLESHEET
  1

  9
$XEDIT
290
     1
  9
$CEPSNTYPE
380
     0
  9
$PSTYLEMODE
290
     1
  9
$FINGERPRINTGUID
  2
{6AF77A7D-C4C2-439D-BA4B-ED54DE2A28CA}
  9
$VERSIONGUID
  2
{FAEB1C32-E019-11D5-929B-00C0DF256EC4}
  9
$EXTNAMES
290
     1
  9
$PSVPSCALE
 40
0.0
  9
$OLESTARTUP
290
     0
  9
$SORTENTS
280
   127
  9
$INDEXCTL
280
     0
  9
$HIDETEXT
280
     1
  9
$XCLIPFRAME
290
     0
  9
$HALOGAP
280
     0
  9
$OBSCOLOR
 70
   257
  9
$OBSLTYPE
280
     0
  9
$INTERSECTIONDISPLAY
280
     0
  9
$INTERSECTIONCOLOR
 70
   257
  9
$DIMASSOC
280
     1
  9
$PROJECTNAME
  1

  9
$CAMERADISPLAY
290
     0
  9
$LENSLENGTH
 40
50.0
  9
$CAMERAHEIGHT
 40
0.0
  9
$STEPSPERSEC
 40
2.0
  9
$STEPSIZE
 40
6.0
  9
$3DDWFPREC
 40
2.0
  9
$PSOLWIDTH
 40
0.25
  9
$PSOLHEIGHT
 40
4.0
  9
$LOFTANG1
 40
1.570796326794897
  9
$LOFTANG2
 40
1.570796326794897
  9
$LOFTMAG1
 40
0.0
  9
$LOFTMAG2
 40
0.0
  9
$LOFTPARAM
 70
     7
  9
$LOFTNORMALS
280
     1
  9
$LATITUDE
 40
37.795
  9
$LONGITUDE
 40
-122.394
  9
$NORTHDIRECTION
 40
0.0
  9
$TIMEZONE
 70
 -8000
  9
$LIGHTGLYPHDISPLAY
280
     1
  9
$TILEMODELIGHTSYNCH
280
     1
  9
$SOLIDHIST
280
     1
  9
$SHOWHIST
280
     1
  9
$DWFFRAME
280
     2
  9
$DGNFRAME
280
     2
  9
$REALWORLDSCALE
290
     1
  9
$INTERFERECOLOR
 62
   256
  9
$CSHADOW
280
     0
  9
$SHADOWPLANELOCATION
 40
0.0
  0
ENDSEC
  0
SECTION
  2
CLASSES
  0
CLASS
  1
ACDBDICTIONARYWDFLT
  2
AcDbDictionaryWithDefault
  3
ObjectDBX Classes
 90
        0
 91
        4
280
     0
281
     0
  0
CLASS
  1
VISUALSTYLE
  2
AcDbVisualStyle
  3
ObjectDBX Classes
 90
     4095
 91
        4
280
     0
281
     0
  0
CLASS
  1
SCALE
  2
AcDbScale
  3
ObjectDBX Classes
 90
     1153
 91
        4
280
     0
281
     0
  0
CLASS
  1
DICTIONARYVAR
  2
AcDbDictionaryVar
  3
ObjectDBX Classes
 90
        0
 91
        4
280
     0
281
     0
  0
ENDSEC
  0
SECTION
  2
TABLES
  0
TABLE
  2
VPORT
  5
8
330
0
100
AcDbSymbolTable
 70
     1
  0
VPORT
  5
29
330
8
100
AcDbSymbolTableRecord
100
AcDbViewportTableRecord
  2
*Active
 70
     0
 10
0.0
 20
0.0
 11
1.0
 21
1.0
 12
10.42990654205607
 22
4.5
 13
0.0
 23
0.0
 14
0.5
 24
0.5
 15
0.5
 25
0.5
 16
0.0
 26
0.0
 36
1.0
 17
0.0
 27
0.0
 37
0.0
 40
9.0
 41
1.972972972850329
 42
50.0
 43
0.0
 44
0.0
 50
0.0
 51
0.0
 71
     0
 72
   100
 73
     1
 74
     3
 75
     0
 76
     0
 77
     0
 78
     0
281
     0
 65
     1
110
0.0
120
0.0
130
0.0
111
1.0
121
0.0
131
0.0
112
0.0
122
1.0
132
0.0
 79
     0
146
0.0
 60
     3
 61
     5
292
     1
282
     1
141
0.0
142
0.0
 63
   256
  0
ENDTAB
  0
TABLE
  2
LTYPE
  5
5
330
0
100
AcDbSymbolTable
 70
     9
  0
LTYPE
  5
14
330
5
100
AcDbSymbolTableRecord
100
AcDbLinetypeTableRecord
  2
ByBlock
 70
     0
  3

 72
    65
 73
     0
 40
0.0
  0
LTYPE
  5
15
330
5
100
AcDbSymbolTableRecord
100
AcDbLinetypeTableRecord
  2
ByLayer
 70
     0
  3

 72
    65
 73
     0
 40
0.0
  0
LTYPE
  5
16
330
5
100
AcDbSymbolTableRecord
100
AcDbLinetypeTableRecord
  2
Continuous
 70
     0
  3
Solid line
 72
    65
 73
     0
 40
0.0
  0
LTYPE
  5
79
330
5
100
AcDbSymbolTableRecord
100
AcDbLinetypeTableRecord
  2
DOT
 70
     0
  3
DOT
 72
    65
 73
     2
 40
4.0
 49
6.0
 74
     0
 49
-2.0
 74
     0
  0
LTYPE
  5
7A
330
5
100
AcDbSymbolTableRecord
100
AcDbLinetypeTableRecord
  2
HIDDEN
 70
     0
  3
HIDDEN
 72
    65
 73
     2
 40
4.2
 49
8.4
 74
     0
 49
-4.2
 74
     0
  0
LTYPE
  5
7B
330
5
100
AcDbSymbolTableRecord
100
AcDbLinetypeTableRecord
  2
DASHDOT
 70
     0
  3
DASHDOT
 72
    65
 73
     4
 40
14.5
 49
30.0
 74
     0
 49
-9.0
 74
     0
 49
2.5
 74
     0
 49
-9.0
 74
     0
  0
LTYPE
  5
7C
330
5
100
AcDbSymbolTableRecord
100
AcDbLinetypeTableRecord
  2
PHANTOM
 70
     0
  3
PHANTOM
 72
    65
 73
     6
 40
12.0
 49
30.0
 74
     0
 49
-9.0
 74
     0
 49
2.5
 74
     0
 49
-5.0
 74
     0
 49
2.5
 74
     0
 49
-9.0
 74
     0
  0
LTYPE
  5
7D
330
5
100
AcDbSymbolTableRecord
100
AcDbLinetypeTableRecord
  2
ACAD_ISO14W100
 70
     0
  3
ACAD_ISO14W100
 72
    65
 73
     8
 40
1.5
 49
12.0
 74
     0
 49
-3.0
 74
     0
 49
0.5
 74
     0
 49
-3.0
 74
     0
 49
0.5
 74
     0
 49
-3.0
 74
     0
 49
0.5
 74
     0
 49
-3.0
 74
     0
  0
LTYPE
  5
7E
330
5
100
AcDbSymbolTableRecord
100
AcDbLinetypeTableRecord
  2
ACAD_ISO06W100
 70
     0
  3
ACAD_ISO06W100
 72
    65
 73
     8
 40
13.5
 49
24.0
 74
     0
 49
-3.0
 74
     0
 49
0.5
 74
     0
 49
-3.0
 74
     0
 49
0.5
 74
     0
 49
-3.0
 74
     0
 49
0.5
 74
     0
 49
-3.0
 74
     0
  0
LTYPE
  5
7F
330
5
100
AcDbSymbolTableRecord
100
AcDbLinetypeTableRecord
  2
ACAD_ISO11W100
 70
     0
  3
ACAD_ISO11W100
 72
    65
 73
     6
 40
15.5
 49
12.0
 74
     0
 49
-3.0
 74
     0
 49
12.0
 74
     0
 49
-3.0
 74
     0
 49
0.5
 74
     0
 49
-3.0
 74
     0
  0
LTYPE
  5
80
330
5
100
AcDbSymbolTableRecord
100
AcDbLinetypeTableRecord
  2
ACAD_ISO13W100
 70
     0
  3
ACAD_ISO13W100
 72
    65
 73
     8
 40
13.0
 49
12.0
 74
     0
 49
-3.0
 74
     0
 49
12.0
 74
     0
 49
-3.0
 74
     0
 49
0.5
 74
     0
 49
-3.0
 74
     0
 49
0.5
 74
     0
 49
-3.0
 74
     0
  0
ENDTAB
  0
TABLE
  2
LAYER
  5
2
330
0
100
AcDbSymbolTable
 70
    25
  0
LAYER
  5
10
330
2
100
AcDbSymbolTableRecord
100
AcDbLayerTableRecord
  2
0
 70
     0
 62
     7
  6
Continuous
370
    -3
390
F
347
0
  0
LAYER
  5
81
330
2
100
AcDbSymbolTableRecord
100
AcDbLayerTableRecord
  2
1
 70
     0
 62
     7
  6
Continuous
370
    -3
390
F
347
0
  0
LAYER
  5
82
330
2
100
AcDbSymbolTableRecord
100
AcDbLayerTableRecord
  2
2
 70
     0
 62
   134
  6
Continuous
370
    -3
390
F
347
0
  0
LAYER
  5
83
330
2
100
AcDbSymbolTableRecord
100
AcDbLayerTableRecord
  2
3
 70
     0
 62
   214
  6
Continuous
370
    -3
390
F
347
0
  0
LAYER
  5
84
330
2
100
AcDbSymbolTableRecord
100
AcDbLayerTableRecord
  2
4
 70
     0
 62
    54
  6
Continuous
370
    -3
390
F
347
0
  0
LAYER
  5
85
330
2
100
AcDbSymbolTableRecord
100
AcDbLayerTableRecord
  2
5
 70
     0
 62
    94
  6
Continuous
370
    -3
390
F
347
0
  0
LAYER
  5
86
330
2
100
AcDbSymbolTableRecord
100
AcDbLayerTableRecord
  2
6
 70
     0
 62
    14
  6
Continuous
370
    -3
390
F
347
0
  0
LAYER
  5
87
330
2
100
AcDbSymbolTableRecord
100
AcDbLayerTableRecord
  2
7
 70
     0
 62
     4
  6
Continuous
370
    -3
390
F
347
0
  0
LAYER
  5
88
330
2
100
AcDbSymbolTableRecord
100
AcDbLayerTableRecord
  2
8
 70
     0
 62
     6
  6
Continuous
370
    -3
390
F
347
0
  0
LAYER
  5
89
330
2
100
AcDbSymbolTableRecord
100
AcDbLayerTableRecord
  2
9
 70
     0
 62
     2
  6
Continuous
370
    -3
390
F
347
0
  0
LAYER
  5
8A
330
2
100
AcDbSymbolTableRecord
100
AcDbLayerTableRecord
  2
10
 70
     0
 62
     3
  6
Continuous
370
    -3
390
F
347
0
  0
LAYER
  5
8B
330
2
100
AcDbSymbolTableRecord
100
AcDbLayerTableRecord
  2
11
 70
     0
 62
   251
  6
Continuous
370
    -3
390
F
347
0
  0
LAYER
  5
8C
330
2
100
AcDbSymbolTableRecord
100
AcDbLayerTableRecord
  2
12
 70
     0
 62
   136
  6
Continuous
370
    -3
390
F
347
0
  0
LAYER
  5
8D
330
2
100
AcDbSymbolTableRecord
100
AcDbLayerTableRecord
  2
13
 70
     0
 62
   216
  6
Continuous
370
    -3
390
F
347
0
  0
LAYER
  5
8E
330
2
100
AcDbSymbolTableRecord
100
AcDbLayerTableRecord
  2
14
 70
     0
 62
    56
  6
Continuous
370
    -3
390
F
347
0
  0
LAYER
  5
8F
330
2
100
AcDbSymbolTableRecord
100
AcDbLayerTableRecord
  2
15
 70
     0
 62
    96
  6
Continuous
370
    -3
390
F
347
0
  0
LAYER
  5
90
330
2
100
AcDbSymbolTableRecord
100
AcDbLayerTableRecord
  2
16
 70
     0
 62
    16
  6
Continuous
370
    -3
390
F
347
0
  0
LAYER
  5
91
330
2
100
AcDbSymbolTableRecord
100
AcDbLayerTableRecord
  2
17
 70
     0
 62
   132
  6
Continuous
370
    -3
390
F
347
0
  0
LAYER
  5
92
330
2
100
AcDbSymbolTableRecord
100
AcDbLayerTableRecord
  2
18
 70
     0
 62
   212
  6
Continuous
370
    -3
390
F
347
0
  0
LAYER
  5
93
330
2
100
AcDbSymbolTableRecord
100
AcDbLayerTableRecord
  2
19
 70
     0
 62
    52
  6
Continuous
370
    -3
390
F
347
0
  0
LAYER
  5
94
330
2
100
AcDbSymbolTableRecord
100
AcDbLayerTableRecord
  2
20
 70
     0
 62
   250
  6
Continuous
370
    -3
390
F
347
0
  0
LAYER
  5
95
330
2
100
AcDbSymbolTableRecord
100
AcDbLayerTableRecord
  2
21
 70
     0
 62
     7
  6
Continuous
370
    -3
390
F
347
0
  0
LAYER
  5
96
330
2
100
AcDbSymbolTableRecord
100
AcDbLayerTableRecord
  2
100
 70
     0
 62
     7
  6
Continuous
370
    -3
390
F
347
0
  0
LAYER
  5
97
330
2
100
AcDbSymbolTableRecord
100
AcDbLayerTableRecord
  2
101
 70
     0
 62
     7
  6
Continuous
370
    -3
390
F
347
0
  0
LAYER
  5
98
330
2
100
AcDbSymbolTableRecord
100
AcDbLayerTableRecord
  2
102
 70
     0
 62
     7
  6
Continuous
370
    -3
390
F
347
0
  0
ENDTAB
  0
TABLE
  2
STYLE
  5
3
330
0
100
AcDbSymbolTable
 70
     2
  0
STYLE
  5
11
330
3
100
AcDbSymbolTableRecord
100
AcDbTextStyleTableRecord
  2
Standard
 70
     0
 40
0.0
 41
1.0
 50
0.0
 71
     0
 42
0.2
  3
txt
  4
bigfont
  0
STYLE
  5
3D
330
3
100
AcDbSymbolTableRecord
100
AcDbTextStyleTableRecord
  2
T_STANDARD
 70
     4
 40
10.0
 41
1.0
 50
0.0
 71
     0
 42
10.0
  3
txt
  4
bigfont
  0
ENDTAB
  0
TABLE
  2
VIEW
  5
6
330
0
100
AcDbSymbolTable
 70
     0
  0
ENDTAB
  0
TABLE
  2
UCS
  5
7
330
0
100
AcDbSymbolTable
 70
     0
  0
ENDTAB
  0
TABLE
  2
APPID
  5
9
330
0
100
AcDbSymbolTable
 70
     2
  0
APPID
  5
12
330
9
100
AcDbSymbolTableRecord
100
AcDbRegAppTableRecord
  2
ACAD
 70
     0
  0
APPID
  5
3C
330
9
100
AcDbSymbolTableRecord
100
AcDbRegAppTableRecord
  2
ODA
 70
     0
  0
ENDTAB
  0
TABLE
  2
DIMSTYLE
  5
A
330
0
100
AcDbSymbolTable
 70
     1
100
AcDbDimStyleTable
  0
DIMSTYLE
105
27
330
A
100
AcDbSymbolTableRecord
100
AcDbDimStyleTableRecord
  2
Standard
 70
     0
340
11
  0
ENDTAB
  0
TABLE
  2
BLOCK_RECORD
  5
1
330
0
100
AcDbSymbolTable
 70
    39
  0
BLOCK_RECORD
  5
1F
330
1
100
AcDbSymbolTableRecord
100
AcDbBlockTableRecord
  2
*Model_Space
340
22
 70
     0
280
     1
281
     0
  0
BLOCK_RECORD
  5
1B
330
1
100
AcDbSymbolTableRecord
100
AcDbBlockTableRecord
  2
*Paper_Space
340
1E
 70
     0
280
     1
281
     0
  0
BLOCK_RECORD
  5
23
330
1
100
AcDbSymbolTableRecord
100
AcDbBlockTableRecord
  2
*Paper_Space0
340
26
 70
     0
280
     1
281
     0
  0
BLOCK_RECORD
  5
3E
330
1
100
AcDbSymbolTableRecord
100
AcDbBlockTableRecord
  2
_ORIGIN
340
0
 70
     0
280
     1
281
     0
  0
BLOCK_RECORD
  5
43
330
1
100
AcDbSymbolTableRecord
100
AcDbBlockTableRecord
  2
_DOTBLANK
340
0
 70
     0
280
     1
281
     0
  0
BLOCK_RECORD
  5
48
330
1
100
AcDbSymbolTableRecord
100
AcDbBlockTableRecord
  2
_DOT
340
0
 70
     0
280
     1
281
     0
  0
BLOCK_RECORD
  5
4D
330
1
100
AcDbSymbolTableRecord
100
AcDbBlockTableRecord
  2
_OPEN
340
0
 70
     0
280
     1
281
     0
  0
BLOCK_RECORD
  5
53
330
1
100
AcDbSymbolTableRecord
100
AcDbBlockTableRecord
  2
_CLOSED
340
0
 70
     0
280
     1
281
     0
  0
BLOCK_RECORD
  5
5A
330
1
100
AcDbSymbolTableRecord
100
AcDbBlockTableRecord
  2
_CLOSEDBLANK
340
0
 70
     0
280
     1
281
     0
  0
BLOCK_RECORD
  5
60
330
1
100
AcDbSymbolTableRecord
100
AcDbBlockTableRecord
  2
_BOXBLANK
340
0
 70
     0
280
     1
281
     0
  0
BLOCK_RECORD
  5
68
330
1
100
AcDbSymbolTableRecord
100
AcDbBlockTableRecord
  2
_BOXFILLED
340
0
 70
     0
280
     1
281
     0
  0
BLOCK_RECORD
  5
6D
330
1
100
AcDbSymbolTableRecord
100
AcDbBlockTableRecord
  2
_INTEGRAL
340
0
 70
     0
280
     1
281
     0
  0
BLOCK_RECORD
  5
72
330
1
100
AcDbSymbolTableRecord
100
AcDbBlockTableRecord
  2
_OBLIQUE
340
0
 70
     0
280
     1
281
     0
  0
BLOCK_RECORD
  5
76
330
1
100
AcDbSymbolTableRecord
100
AcDbBlockTableRecord
  2
_NONE
340
0
 70
     0
280
     1
281
     0
  0
BLOCK_RECORD
  5
167
330
1
100
AcDbSymbolTableRecord
100
AcDbBlockTableRecord
  2
*G12
340
0
102
{BLKREFS
331
2ED
102
}
 70
     0
280
     1
281
     0
  0
BLOCK_RECORD
  5
16A
330
1
100
AcDbSymbolTableRecord
100
AcDbBlockTableRecord
  2
*G13
340
0
102
{BLKREFS
331
1A0
102
}
 70
     0
280
     1
281
     0
  0
BLOCK_RECORD
  5
1A1
330
1
100
AcDbSymbolTableRecord
100
AcDbBlockTableRecord
  2
*G14
340
0
102
{BLKREFS
331
1AC
102
}
 70
     0
280
     1
281
     0
  0
BLOCK_RECORD
  5
1AD
330
1
100
AcDbSymbolTableRecord
100
AcDbBlockTableRecord
  2
*G15
340
0
102
{BLKREFS
331
1C0
102
}
 70
     0
280
     1
281
     0
  0
BLOCK_RECORD
  5
1C1
330
1
100
AcDbSymbolTableRecord
100
AcDbBlockTableRecord
  2
*G16
340
0
102
{BLKREFS
331
1C8
102
}
 70
     0
280
     1
281
     0
  0
BLOCK_RECORD
  5
1C9
330
1
100
AcDbSymbolTableRecord
100
AcDbBlockTableRecord
  2
*G17
340
0
102
{BLKREFS
331
1CF
102
}
 70
     0
280
     1
281
     0
  0
BLOCK_RECORD
  5
1D0
330
1
100
AcDbSymbolTableRecord
100
AcDbBlockTableRecord
  2
*G18
340
0
102
{BLKREFS
331
1DE
102
}
 70
     0
280
     1
281
     0
  0
BLOCK_RECORD
  5
1DF
330
1
100
AcDbSymbolTableRecord
100
AcDbBlockTableRecord
  2
*G19
340
0
102
{BLKREFS
331
1E4
102
}
 70
     0
280
     1
281
     0
  0
BLOCK_RECORD
  5
1E5
330
1
100
AcDbSymbolTableRecord
100
AcDbBlockTableRecord
  2
*G20
340
0
102
{BLKREFS
331
200
102
}
 70
     0
280
     1
281
     0
  0
BLOCK_RECORD
  5
201
330
1
100
AcDbSymbolTableRecord
100
AcDbBlockTableRecord
  2
*G21
340
0
102
{BLKREFS
331
20B
102
}
 70
     0
280
     1
281
     0
  0
BLOCK_RECORD
  5
20C
330
1
100
AcDbSymbolTableRecord
100
AcDbBlockTableRecord
  2
*G22
340
0
102
{BLKREFS
331
215
102
}
 70
     0
280
     1
281
     0
  0
BLOCK_RECORD
  5
216
330
1
100
AcDbSymbolTableRecord
100
AcDbBlockTableRecord
  2
*G23
340
0
102
{BLKREFS
331
21B
102
}
 70
     0
280
     1
281
     0
  0
BLOCK_RECORD
  5
21C
330
1
100
AcDbSymbolTableRecord
100
AcDbBlockTableRecord
  2
*G24
340
0
102
{BLKREFS
331
226
102
}
 70
     0
280
     1
281
     0
  0
BLOCK_RECORD
  5
227
330
1
100
AcDbSymbolTableRecord
100
AcDbBlockTableRecord
  2
*G25
340
0
102
{BLKREFS
331
238
102
}
 70
     0
280
     1
281
     0
  0
BLOCK_RECORD
  5
239
330
1
100
AcDbSymbolTableRecord
100
AcDbBlockTableRecord
  2
*G26
340
0
102
{BLKREFS
331
241
102
}
 70
     0
280
     1
281
     0
  0
BLOCK_RECORD
  5
242
330
1
100
AcDbSymbolTableRecord
100
AcDbBlockTableRecord
  2
*G27
340
0
102
{BLKREFS
331
27D
102
}
 70
     0
280
     1
281
     0
  0
BLOCK_RECORD
  5
27E
330
1
100
AcDbSymbolTableRecord
100
AcDbBlockTableRecord
  2
*G28
340
0
102
{BLKREFS
331
285
102
}
 70
     0
280
     1
281
     0
  0
BLOCK_RECORD
  5
286
330
1
100
AcDbSymbolTableRecord
100
AcDbBlockTableRecord
  2
*G29
340
0
102
{BLKREFS
331
28D
102
}
 70
     0
280
     1
281
     0
  0
BLOCK_RECORD
  5
28E
330
1
100
AcDbSymbolTableRecord
100
AcDbBlockTableRecord
  2
*G30
340
0
102
{BLKREFS
331
295
102
}
 70
     0
280
     1
281
     0
  0
BLOCK_RECORD
  5
296
330
1
100
AcDbSymbolTableRecord
100
AcDbBlockTableRecord
  2
*G31
340
0
102
{BLKREFS
331
29E
102
}
 70
     0
280
     1
281
     0
  0
BLOCK_RECORD
  5
29F
330
1
100
AcDbSymbolTableRecord
100
AcDbBlockTableRecord
  2
*G32
340
0
102
{BLKREFS
331
2A7
102
}
 70
     0
280
     1
281
     0
  0
BLOCK_RECORD
  5
2A8
330
1
100
AcDbSymbolTableRecord
100
AcDbBlockTableRecord
  2
*G33
340
0
102
{BLKREFS
331
2B0
102
}
 70
     0
280
     1
281
     0
  0
BLOCK_RECORD
  5
2B1
330
1
100
AcDbSymbolTableRecord
100
AcDbBlockTableRecord
  2
*G34
340
0
102
{BLKREFS
331
2B9
102
}
 70
     0
280
     1
281
     0
  0
BLOCK_RECORD
  5
2BA
330
1
100
AcDbSymbolTableRecord
100
AcDbBlockTableRecord
  2
*G35
340
0
102
{BLKREFS
331
2C4
102
}
 70
     0
280
     1
281
     0
  0
BLOCK_RECORD
  5
2C5
330
1
100
AcDbSymbolTableRecord
100
AcDbBlockTableRecord
  2
*G36
340
0
102
{BLKREFS
331
2D4
102
}
 70
     0
280
     1
281
     0
  0
BLOCK_RECORD
  5
2D5
330
1
100
AcDbSymbolTableRecord
100
AcDbBlockTableRecord
  2
*G37
340
0
102
{BLKREFS
331
2DC
102
}
 70
     0
280
     1
281
     0
  0
BLOCK_RECORD
  5
2DD
330
1
100
AcDbSymbolTableRecord
100
AcDbBlockTableRecord
  2
*G38
340
0
102
{BLKREFS
331
2EC
102
}
 70
     0
280
     1
281
     0
  0
ENDTAB
  0
ENDSEC
  0
SECTION
  2
BLOCKS
  0
BLOCK
  5
20
330
1F
100
AcDbEntity
  8
0
100
AcDbBlockBegin
  2
*Model_Space
 70
     0
 10
0.0
 20
0.0
 30
0.0
  3
*Model_Space
  1

  0
ENDBLK
  5
21
330
1F
100
AcDbEntity
  8
0
100
AcDbBlockEnd
  0
BLOCK
  5
1C
330
1B
100
AcDbEntity
 67
     1
  8
0
100
AcDbBlockBegin
  2
*Paper_Space
 70
     0
 10
0.0
 20
0.0
 30
0.0
  3
*Paper_Space
  1

  0
ENDBLK
  5
1D
330
1B
100
AcDbEntity
 67
     1
  8
0
100
AcDbBlockEnd
  0
BLOCK
  5
24
330
23
100
AcDbEntity
  8
0
100
AcDbBlockBegin
  2
*Paper_Space0
 70
     0
 10
0.0
 20
0.0
 30
0.0
  3
*Paper_Space0
  1

  0
ENDBLK
  5
25
330
23
100
AcDbEntity
  8
0
100
AcDbBlockEnd
  0
BLOCK
  5
41
330
3E
100
AcDbEntity
  8
0
100
AcDbBlockBegin
  2
_ORIGIN
 70
     0
 10
0.0
 20
0.0
 30
0.0
  3
_ORIGIN
  1

  0
CIRCLE
  5
3F
330
3E
100
AcDbEntity
  8
0
100
AcDbCircle
 10
0.0
 20
0.0
 30
0.0
 40
0.5
  0
LINE
  5
40
330
3E
100
AcDbEntity
  8
0
100
AcDbLine
 10
0.0
 20
0.0
 30
0.0
 11
-1.0
 21
0.0
 31
0.0
  0
ENDBLK
  5
42
330
3E
100
AcDbEntity
  8
0
100
AcDbBlockEnd
  0
BLOCK
  5
46
330
43
100
AcDbEntity
  8
0
100
AcDbBlockBegin
  2
_DOTBLANK
 70
     0
 10
0.0
 20
0.0
 30
0.0
  3
_DOTBLANK
  1

  0
CIRCLE
  5
44
330
43
100
AcDbEntity
  8
0
100
AcDbCircle
 10
0.0
 20
0.0
 30
0.0
 40
0.5
  0
LINE
  5
45
330
43
100
AcDbEntity
  8
0
100
AcDbLine
 10
-0.5
 20
0.0
 30
0.0
 11
-1.0
 21
0.0
 31
0.0
  0
ENDBLK
  5
47
330
43
100
AcDbEntity
  8
0
100
AcDbBlockEnd
  0
BLOCK
  5
4B
330
48
100
AcDbEntity
  8
0
100
AcDbBlockBegin
  2
_DOT
 70
     0
 10
0.0
 20
0.0
 30
0.0
  3
_DOT
  1

  0
LWPOLYLINE
  5
49
330
48
100
AcDbEntity
  8
0
100
AcDbPolyline
 90
        2
 70
     1
 43
0.5
 10
-0.25
 20
0.0
 42
1.0
 10
0.25
 20
0.0
 42
1.0
  0
LINE
  5
4A
330
48
100
AcDbEntity
  8
0
100
AcDbLine
 10
-0.5
 20
0.0
 30
0.0
 11
-1.0
 21
0.0
 31
0.0
  0
ENDBLK
  5
4C
330
48
100
AcDbEntity
  8
0
100
AcDbBlockEnd
  0
BLOCK
  5
51
330
4D
100
AcDbEntity
  8
0
100
AcDbBlockBegin
  2
_OPEN
 70
     0
 10
0.0
 20
0.0
 30
0.0
  3
_OPEN
  1

  0
LINE
  5
4E
330
4D
100
AcDbEntity
  8
0
100
AcDbLine
 10
-1.0
 20
0.1666666666666667
 30
0.0
 11
0.0
 21
0.0
 31
0.0
  0
LINE
  5
4F
330
4D
100
AcDbEntity
  8
0
100
AcDbLine
 10
-1.0
 20
-0.1666666666666667
 30
0.0
 11
0.0
 21
0.0
 31
0.0
  0
LINE
  5
50
330
4D
100
AcDbEntity
  8
0
100
AcDbLine
 10
0.0
 20
0.0
 30
0.0
 11
-1.0
 21
0.0
 31
0.0
  0
ENDBLK
  5
52
330
4D
100
AcDbEntity
  8
0
100
AcDbBlockEnd
  0
BLOCK
  5
58
330
53
100
AcDbEntity
  8
0
100
AcDbBlockBegin
  2
_CLOSED
 70
     0
 10
0.0
 20
0.0
 30
0.0
  3
_CLOSED
  1

  0
LINE
  5
54
330
53
100
AcDbEntity
  8
0
100
AcDbLine
 10
-1.0
 20
0.1666666666666667
 30
0.0
 11
0.0
 21
0.0
 31
0.0
  0
LINE
  5
55
330
53
100
AcDbEntity
  8
0
100
AcDbLine
 10
0.0
 20
0.0
 30
0.0
 11
-1.0
 21
-0.1666666666666667
 31
0.0
  0
LINE
  5
56
330
53
100
AcDbEntity
  8
0
100
AcDbLine
 10
-1.0
 20
0.1666666666666667
 30
0.0
 11
-1.0
 21
-0.1666666666666667
 31
0.0
  0
LINE
  5
57
330
53
100
AcDbEntity
  8
0
100
AcDbLine
 10
0.0
 20
0.0
 30
0.0
 11
-1.0
 21
0.0
 31
0.0
  0
ENDBLK
  5
59
330
53
100
AcDbEntity
  8
0
100
AcDbBlockEnd
  0
BLOCK
  5
5E
330
5A
100
AcDbEntity
  8
0
100
AcDbBlockBegin
  2
_CLOSEDBLANK
 70
     0
 10
0.0
 20
0.0
 30
0.0
  3
_CLOSEDBLANK
  1

  0
LINE
  5
5B
330
5A
100
AcDbEntity
  8
0
100
AcDbLine
 10
-1.0
 20
0.1666666666666667
 30
0.0
 11
0.0
 21
0.0
 31
0.0
  0
LINE
  5
5C
330
5A
100
AcDbEntity
  8
0
100
AcDbLine
 10
0.0
 20
0.0
 30
0.0
 11
-1.0
 21
-0.1666666666666667
 31
0.0
  0
LINE
  5
5D
330
5A
100
AcDbEntity
  8
0
100
AcDbLine
 10
-1.0
 20
0.1666666666666667
 30
0.0
 11
-1.0
 21
-0.1666666666666667
 31
0.0
  0
ENDBLK
  5
5F
330
5A
100
AcDbEntity
  8
0
100
AcDbBlockEnd
  0
BLOCK
  5
66
330
60
100
AcDbEntity
  8
0
100
AcDbBlockBegin
  2
_BOXBLANK
 70
     0
 10
0.0
 20
0.0
 30
0.0
  3
_BOXBLANK
  1

  0
LINE
  5
61
330
60
100
AcDbEntity
  8
0
100
AcDbLine
 10
-0.5
 20
-0.5
 30
0.0
 11
0.5
 21
-0.5
 31
0.0
  0
LINE
  5
62
330
60
100
AcDbEntity
  8
0
100
AcDbLine
 10
0.5
 20
-0.5
 30
0.0
 11
0.5
 21
0.5
 31
0.0
  0
LINE
  5
63
330
60
100
AcDbEntity
  8
0
100
AcDbLine
 10
0.5
 20
0.5
 30
0.0
 11
-0.5
 21
0.5
 31
0.0
  0
LINE
  5
64
330
60
100
AcDbEntity
  8
0
100
AcDbLine
 10
-0.5
 20
0.5
 30
0.0
 11
-0.5
 21
-0.5
 31
0.0
  0
LINE
  5
65
330
60
100
AcDbEntity
  8
0
100
AcDbLine
 10
-0.5
 20
0.0
 30
0.0
 11
-1.0
 21
0.0
 31
0.0
  0
ENDBLK
  5
67
330
60
100
AcDbEntity
  8
0
100
AcDbBlockEnd
  0
BLOCK
  5
6B
330
68
100
AcDbEntity
  8
0
100
AcDbBlockBegin
  2
_BOXFILLED
 70
     0
 10
0.0
 20
0.0
 30
0.0
  3
_BOXFILLED
  1

  0
SOLID
  5
69
330
68
100
AcDbEntity
  8
0
100
AcDbTrace
 10
-0.5
 20
0.5
 30
0.0
 11
0.5
 21
0.5
 31
0.0
 12
-0.5
 22
-0.5
 32
0.0
 13
0.5
 23
-0.5
 33
0.0
  0
LINE
  5
6A
330
68
100
AcDbEntity
  8
0
100
AcDbLine
 10
-0.5
 20
0.0
 30
0.0
 11
-1.0
 21
0.0
 31
0.0
  0
ENDBLK
  5
6C
330
68
100
AcDbEntity
  8
0
100
AcDbBlockEnd
  0
BLOCK
  5
70
330
6D
100
AcDbEntity
  8
0
100
AcDbBlockBegin
  2
_INTEGRAL
 70
     0
 10
0.0
 20
0.0
 30
0.0
  3
_INTEGRAL
  1

  0
ARC
  5
6E
330
6D
100
AcDbEntity
  8
0
100
AcDbCircle
 10
0.444888
 20
-0.0913346
 30
0.0
 40
0.4541666
100
AcDbArc
 50
84.16951033439696
 51
265.6909581978302
  0
ARC
  5
6F
330
6D
100
AcDbEntity
  8
0
100
AcDbCircle
 10
-0.444888
 20
0.0913346
 30
0.0
 40
0.4541666
100
AcDbArc
 50
317.4098226892151
 51
138.9312705526484
  0
ENDBLK
  5
71
330
6D
100
AcDbEntity
  8
0
100
AcDbBlockEnd
  0
BLOCK
  5
74
330
72
100
AcDbEntity
  8
0
100
AcDbBlockBegin
  2
_OBLIQUE
 70
     0
 10
0.0
 20
0.0
 30
0.0
  3
_OBLIQUE
  1

  0
LINE
  5
73
330
72
100
AcDbEntity
  8
0
100
AcDbLine
 10
-0.5
 20
-0.5
 30
0.0
 11
0.5
 21
0.5
 31
0.0
  0
ENDBLK
  5
75
330
72
100
AcDbEntity
  8
0
100
AcDbBlockEnd
  0
BLOCK
  5
77
330
76
100
AcDbEntity
  8
0
100
AcDbBlockBegin
  2
_NONE
 70
     0
 10
0.0
 20
0.0
 30
0.0
  3
_NONE
  1

  0
ENDBLK
  5
78
330
76
100
AcDbEntity
  8
0
100
AcDbBlockEnd
  0
BLOCK
  5
168
330
167
100
AcDbEntity
  8
0
100
AcDbBlockBegin
  2
*G12
 70
     1
 10
0.0
 20
0.0
 30
0.0
  3
*G12
  1

  0
INSERT
  5
1A0
330
167
100
AcDbEntity
  8
0
100
AcDbBlockReference
  2
*G13
 10
0.0
 20
0.0
 30
0.0
  0
INSERT
  5
1AC
330
167
100
AcDbEntity
  8
0
100
AcDbBlockReference
  2
*G14
 10
0.0
 20
0.0
 30
0.0
  0
INSERT
  5
1C0
330
167
100
AcDbEntity
  8
0
100
AcDbBlockReference
  2
*G15
 10
0.0
 20
0.0
 30
0.0
  0
INSERT
  5
1C8
330
167
100
AcDbEntity
  8
0
100
AcDbBlockReference
  2
*G16
 10
0.0
 20
0.0
 30
0.0
  0
INSERT
  5
1CF
330
167
100
AcDbEntity
  8
0
100
AcDbBlockReference
  2
*G17
 10
0.0
 20
0.0
 30
0.0
  0
INSERT
  5
1DE
330
167
100
AcDbEntity
  8
0
100
AcDbBlockReference
  2
*G18
 10
0.0
 20
0.0
 30
0.0
  0
INSERT
  5
1E4
330
167
100
AcDbEntity
  8
0
100
AcDbBlockReference
  2
*G19
 10
0.0
 20
0.0
 30
0.0
  0
INSERT
  5
200
330
167
100
AcDbEntity
  8
0
100
AcDbBlockReference
  2
*G20
 10
0.0
 20
0.0
 30
0.0
  0
INSERT
  5
20B
330
167
100
AcDbEntity
  8
0
100
AcDbBlockReference
  2
*G21
 10
0.0
 20
0.0
 30
0.0
  0
INSERT
  5
215
330
167
100
AcDbEntity
  8
0
100
AcDbBlockReference
  2
*G22
 10
0.0
 20
0.0
 30
0.0
  0
INSERT
  5
21B
330
167
100
AcDbEntity
  8
0
100
AcDbBlockReference
  2
*G23
 10
0.0
 20
0.0
 30
0.0
  0
INSERT
  5
226
330
167
100
AcDbEntity
  8
0
100
AcDbBlockReference
  2
*G24
 10
0.0
 20
0.0
 30
0.0
  0
INSERT
  5
238
330
167
100
AcDbEntity
  8
0
100
AcDbBlockReference
  2
*G25
 10
0.0
 20
0.0
 30
0.0
  0
INSERT
  5
241
330
167
100
AcDbEntity
  8
0
100
AcDbBlockReference
  2
*G26
 10
0.0
 20
0.0
 30
0.0
  0
INSERT
  5
27D
330
167
100
AcDbEntity
  8
0
100
AcDbBlockReference
  2
*G27
 10
0.0
 20
0.0
 30
0.0
  0
INSERT
  5
285
330
167
100
AcDbEntity
  8
0
100
AcDbBlockReference
  2
*G28
 10
0.0
 20
0.0
 30
0.0
  0
INSERT
  5
28D
330
167
100
AcDbEntity
  8
0
100
AcDbBlockReference
  2
*G29
 10
0.0
 20
0.0
 30
0.0
  0
INSERT
  5
295
330
167
100
AcDbEntity
  8
0
100
AcDbBlockReference
  2
*G30
 10
0.0
 20
0.0
 30
0.0
  0
INSERT
  5
29E
330
167
100
AcDbEntity
  8
0
100
AcDbBlockReference
  2
*G31
 10
0.0
 20
0.0
 30
0.0
  0
INSERT
  5
2A7
330
167
100
AcDbEntity
  8
0
100
AcDbBlockReference
  2
*G32
 10
0.0
 20
0.0
 30
0.0
  0
INSERT
  5
2B0
330
167
100
AcDbEntity
  8
0
100
AcDbBlockReference
  2
*G33
 10
0.0
 20
0.0
 30
0.0
  0
INSERT
  5
2B9
330
167
100
AcDbEntity
  8
0
100
AcDbBlockReference
  2
*G34
 10
0.0
 20
0.0
 30
0.0
  0
INSERT
  5
2C4
330
167
100
AcDbEntity
  8
0
100
AcDbBlockReference
  2
*G35
 10
0.0
 20
0.0
 30
0.0
  0
INSERT
  5
2D4
330
167
100
AcDbEntity
  8
0
100
AcDbBlockReference
  2
*G36
 10
0.0
 20
0.0
 30
0.0
  0
INSERT
  5
2DC
330
167
100
AcDbEntity
  8
0
100
AcDbBlockReference
  2
*G37
 10
0.0
 20
0.0
 30
0.0
  0
INSERT
  5
2EC
330
167
100
AcDbEntity
  8
0
100
AcDbBlockReference
  2
*G38
 10
0.0
 20
0.0
 30
0.0
  0
ENDBLK
  5
169
330
167
100
AcDbEntity
  8
0
100
AcDbBlockEnd
  0
BLOCK
  5
16B
330
16A
100
AcDbEntity
  8
0
100
AcDbBlockBegin
  2
*G13
 70
     1
 10
0.0
 20
0.0
 30
0.0
  3
*G13
  1

  0
LINE
  5
16D
330
16A
100
AcDbEntity
  8
100
  6
Continuous
 62
     7
370
    30
100
AcDbLine
 10
507.7673587147145
 20
-223.0954418758198
 30
0.0
 11
513.7258548281478
 21
-228.724949880988
 31
0.0
  0
LINE
  5
16E
330
16A
100
AcDbEntity
  8
100
  6
Continuous
 62
     7
370
    30
100
AcDbLine
 10
513.7258548281478
 20
-228.724949880988
 30
0.0
 11
521.6349969132046
 21
-234.0785318165887
 31
0.0
  0
LINE
  5
16F
330
16A
100
AcDbEntity
  8
100
  6
Continuous
 62
     7
370
    30
100
AcDbLine
 10
521.6349969132046
 20
-234.0785318165887
 30
0.0
 11
534.4420572482657
 21
-238.5882850125141
 31
0.0
  0
LINE
  5
170
330
16A
100
AcDbEntity
  8
100
  6
Continuous
 62
     7
370
    30
100
AcDbLine
 10
534.4420572482657
 20
-238.5882850125141
 30
0.0
 11
546.9860406091376
 21
-238.7151015228429
 31
0.0
  0
LINE
  5
171
330
16A
100
AcDbEntity
  8
100
  6
Continuous
 62
     7
370
    30
100
AcDbLine
 10
546.9860406091376
 20
-238.7151015228429
 30
0.0
 11
556.81476307571
 21
-237.5753102084396
 31
0.0
  0
LINE
  5
172
330
16A
100
AcDbEntity
  8
100
  6
Continuous
 62
     7
370
    30
100
AcDbLine
 10
556.81476307571
 20
-237.5753102084396
 30
0.0
 11
561.3444993257136
 21
-236.0937715383326
 31
0.0
  0
LINE
  5
173
330
16A
100
AcDbEntity
  8
100
  6
Continuous
 62
     7
370
    30
100
AcDbLine
 10
561.3444993257136
 20
-236.0937715383326
 30
0.0
 11
567.8038073012584
 21
-233.7816211337109
 31
0.0
  0
LINE
  5
174
330
16A
100
AcDbEntity
  8
100
  6
Continuous
 62
     7
370
    30
100
AcDbLine
 10
567.8038073012584
 20
-233.7816211337109
 30
0.0
 11
575.2678261672912
 21
-228.0551350383327
 31
0.0
  0
LINE
  5
175
330
16A
100
AcDbEntity
  8
100
  6
Continuous
 62
     7
370
    30
100
AcDbLine
 10
575.2678261672912
 20
-228.0551350383327
 30
0.0
 11
581.7993540681078
 21
-221.4498912136002
 31
0.0
  0
LINE
  5
176
330
16A
100
AcDbEntity
  8
100
  6
Continuous
 62
     7
370
    30
100
AcDbLine
 10
581.7993540681078
 20
-221.4498912136002
 30
0.0
 11
589.1547262884957
 21
-208.4170436078927
 31
0.0
  0
LINE
  5
177
330
16A
100
AcDbEntity
  8
100
  6
Continuous
 62
     7
370
    30
100
AcDbLine
 10
589.1547262884957
 20
-208.4170436078927
 30
0.0
 11
594.4983168800696
 21
-194.845140007346
 31
0.0
  0
LINE
  5
178
330
16A
100
AcDbEntity
  8
100
  6
Continuous
 62
     7
370
    30
100
AcDbLine
 10
594.4983168800696
 20
-194.845140007346
 30
0.0
 11
600.0905859007273
 21
-179.0039620807185
 31
0.0
  0
LINE
  5
179
330
16A
100
AcDbEntity
  8
100
  6
Continuous
 62
     7
370
    30
100
AcDbLine
 10
600.0905859007273
 20
-179.0039620807185
 30
0.0
 11
604.6200066920316
 21
-163.7764210201163
 31
0.0
  0
LINE
  5
17A
330
16A
100
AcDbEntity
  8
100
  6
Continuous
 62
     7
370
    30
100
AcDbLine
 10
604.6200066920316
 20
-163.7764210201163
 30
0.0
 11
607.6121103222014
 21
-148.5861705290819
 31
0.0
  0
LINE
  5
17B
330
16A
100
AcDbEntity
  8
100
  6
Continuous
 62
     7
370
    30
100
AcDbLine
 10
607.6121103222014
 20
-148.5861705290819
 30
0.0
 11
609.538140427909
 21
-136.7039705290746
 31
0.0
  0
LINE
  5
17C
330
16A
100
AcDbEntity
  8
100
  6
Continuous
 62
     7
370
    30
100
AcDbLine
 10
609.538140427909
 20
-136.7039705290746
 30
0.0
 11
610.9512327243741
 21
-119.0242441823362
 31
0.0
  0
LINE
  5
17D
330
16A
100
AcDbEntity
  8
100
  6
Continuous
 62
     7
370
    30
100
AcDbLine
 10
610.9512327243741
 20
-119.0242441823362
 30
0.0
 11
610.7471573042704
 21
-107.379867186141
 31
0.0
  0
LINE
  5
17E
330
16A
100
AcDbEntity
  8
100
  6
Continuous
 62
     7
370
    30
100
AcDbLine
 10
610.7471573042704
 20
-107.379867186141
 30
0.0
 11
609.8319728545439
 21
-96.71290322091735
 31
0.0
  0
LINE
  5
17F
330
16A
100
AcDbEntity
  8
100
  6
Continuous
 62
     7
370
    30
100
AcDbLine
 10
609.8319728545439
 20
-96.71290322091735
 30
0.0
 11
607.1219806444923
 21
-86.37360502499186
 31
0.0
  0
LINE
  5
180
330
16A
100
AcDbEntity
  8
100
  6
Continuous
 62
     7
370
    30
100
AcDbLine
 10
607.1219806444923
 20
-86.37360502499186
 30
0.0
 11
601.5784058751943
 21
-75.54457786901105
 31
0.0
  0
LINE
  5
181
330
16A
100
AcDbEntity
  8
100
  6
Continuous
 62
     7
370
    30
100
AcDbLine
 10
601.5784058751943
 20
-75.54457786901105
 30
0.0
 11
597.6390964099782
 21
-69.45785772851954
 31
0.0
  0
LINE
  5
182
330
16A
100
AcDbEntity
  8
100
  6
Continuous
 62
     7
370
    30
100
AcDbLine
 10
597.6390964099782
 20
-69.45785772851954
 30
0.0
 11
592.0682229151389
 21
-62.75427579291926
 31
0.0
  0
LINE
  5
183
330
16A
100
AcDbEntity
  8
100
  6
Continuous
 62
     7
370
    30
100
AcDbLine
 10
592.0682229151389
 20
-62.75427579291926
 30
0.0
 11
586.6902507243815
 21
-58.34844671683476
 31
0.0
  0
LINE
  5
184
330
16A
100
AcDbEntity
  8
100
  6
Continuous
 62
     7
370
    30
100
AcDbLine
 10
586.6902507243815
 20
-58.34844671683476
 30
0.0
 11
579.4352605040009
 21
-52.90061704672019
 31
0.0
  0
LINE
  5
185
330
16A
100
AcDbEntity
  8
100
  6
Continuous
 62
     7
370
    30
100
AcDbLine
 10
579.4352605040009
 20
-52.90061704672019
 30
0.0
 11
574.5975252140528
 21
-50.16686773096092
 31
0.0
  0
LINE
  5
186
330
16A
100
AcDbEntity
  8
100
  6
Continuous
 62
     7
370
    30
100
AcDbLine
 10
574.5975252140528
 20
-50.16686773096092
 30
0.0
 11
570.957403118674
 21
-46.31653731601074
 31
0.0
  0
LINE
  5
187
330
16A
100
AcDbEntity
  8
100
  6
Continuous
 62
     7
370
    30
100
AcDbLine
 10
570.957403118674
 20
-46.31653731601074
 30
0.0
 11
568.564221118674
 21
-42.17142450025142
 31
0.0
  0
LINE
  5
188
330
16A
100
AcDbEntity
  8
100
  6
Continuous
 62
     7
370
    30
100
AcDbLine
 10
568.564221118674
 20
-42.17142450025142
 30
0.0
 11
567.1813368841599
 21
-39.28528874508731
 31
0.0
  0
LINE
  5
189
330
16A
100
AcDbEntity
  8
100
  6
Continuous
 62
     7
370
    30
100
AcDbLine
 10
567.1813368841599
 20
-39.28528874508731
 30
0.0
 11
556.3992756830736
 21
-38.28293893448847
 31
0.0
  0
LINE
  5
18A
330
16A
100
AcDbEntity
  8
100
  6
Continuous
 62
     7
370
    30
100
AcDbLine
 10
556.3992756830736
 20
-38.28293893448847
 30
0.0
 11
545.3926086173107
 21
-38.11883235459226
 31
0.0
  0
LINE
  5
18B
330
16A
100
AcDbEntity
  8
100
  6
Continuous
 62
     7
370
    30
100
AcDbLine
 10
545.3926086173107
 20
-38.11883235459226
 30
0.0
 11
536.6836942770891
 21
-37.76182223856301
 31
0.0
  0
LINE
  5
18C
330
16A
100
AcDbEntity
  8
100
  6
Continuous
 62
     7
370
    30
100
AcDbLine
 10
536.6836942770891
 20
-37.76182223856301
 30
0.0
 11
529.5165012010045
 21
-38.35697168312902
 31
0.0
  0
LINE
  5
18D
330
16A
100
AcDbEntity
  8
100
  6
Continuous
 62
     7
370
    30
100
AcDbLine
 10
529.5165012010045
 20
-38.35697168312902
 30
0.0
 11
529.6195619716513
 21
-40.99002217415602
 31
0.0
  0
LINE
  5
18E
330
16A
100
AcDbEntity
  8
100
  6
Continuous
 62
     7
370
    30
100
AcDbLine
 10
529.6195619716513
 20
-40.99002217415602
 30
0.0
 11
527.5235225863242
 21
-45.45957546410426
 31
0.0
  0
LINE
  5
18F
330
16A
100
AcDbEntity
  8
100
  6
Continuous
 62
     7
370
    30
100
AcDbLine
 10
527.5235225863242
 20
-45.45957546410426
 30
0.0
 11
523.3423002409419
 21
-49.99930392415956
 31
0.0
  0
LINE
  5
190
330
16A
100
AcDbEntity
  8
100
  6
Continuous
 62
     7
370
    30
100
AcDbLine
 10
523.3423002409419
 20
-49.99930392415956
 30
0.0
 11
515.8125115398554
 21
-54.63005532362024
 31
0.0
  0
LINE
  5
191
330
16A
100
AcDbEntity
  8
100
  6
Continuous
 62
     7
370
    30
100
AcDbLine
 10
515.8125115398554
 20
-54.63005532362024
 30
0.0
 11
505.9729340140372
 21
-60.16922512388976
 31
0.0
  0
LINE
  5
192
330
16A
100
AcDbEntity
  8
100
  6
Continuous
 62
     7
370
    30
100
AcDbLine
 10
505.9729340140372
 20
-60.16922512388976
 30
0.0
 11
499.7273764778973
 21
-66.04251214970111
 31
0.0
  0
LINE
  5
193
330
16A
100
AcDbEntity
  8
100
  6
Continuous
 62
     7
370
    30
100
AcDbLine
 10
499.7273764778973
 20
-66.04251214970111
 30
0.0
 11
493.4128246776203
 21
-73.51447760459556
 31
0.0
  0
LINE
  5
194
330
16A
100
AcDbEntity
  8
100
  6
Continuous
 62
     7
370
    30
100
AcDbLine
 10
493.4128246776203
 20
-73.51447760459556
 30
0.0
 11
487.7941206466411
 21
-83.41896075024775
 31
0.0
  0
LINE
  5
195
330
16A
100
AcDbEntity
  8
100
  6
Continuous
 62
     7
370
    30
100
AcDbLine
 10
487.7941206466411
 20
-83.41896075024775
 30
0.0
 11
484.3668851414731
 21
-93.19190472579254
 31
0.0
  0
LINE
  5
196
330
16A
100
AcDbEntity
  8
100
  6
Continuous
 62
     7
370
    30
100
AcDbLine
 10
484.3668851414731
 20
-93.19190472579254
 30
0.0
 11
482.2479528656584
 21
-102.776352366284
 31
0.0
  0
LINE
  5
197
330
16A
100
AcDbEntity
  8
100
  6
Continuous
 62
     7
370
    30
100
AcDbLine
 10
482.2479528656584
 20
-102.776352366284
 30
0.0
 11
481.2555947651117
 21
-119.2211737168346
 31
0.0
  0
LINE
  5
198
330
16A
100
AcDbEntity
  8
100
  6
Continuous
 62
     7
370
    30
100
AcDbLine
 10
481.2555947651117
 20
-119.2211737168346
 30
0.0
 11
482.7198274197291
 21
-133.5391170687336
 31
0.0
  0
LINE
  5
199
330
16A
100
AcDbEntity
  8
100
  6
Continuous
 62
     7
370
    30
100
AcDbLine
 10
482.7198274197291
 20
-133.5391170687336
 30
0.0
 11
484.5205365137518
 21
-151.6307647092323
 31
0.0
  0
LINE
  5
19A
330
16A
100
AcDbEntity
  8
100
  6
Continuous
 62
     7
370
    30
100
AcDbLine
 10
484.5205365137518
 20
-151.6307647092323
 30
0.0
 11
488.6606952379371
 21
-172.0562759709209
 31
0.0
  0
LINE
  5
19B
330
16A
100
AcDbEntity
  8
100
  6
Continuous
 62
     7
370
    30
100
AcDbLine
 10
488.6606952379371
 20
-172.0562759709209
 30
0.0
 11
492.7788261528799
 21
-187.5345419478218
 31
0.0
  0
LINE
  5
19C
330
16A
100
AcDbEntity
  8
100
  6
Continuous
 62
     7
370
    30
100
AcDbLine
 10
492.7788261528799
 20
-187.5345419478218
 30
0.0
 11
497.9806534324993
 21
-203.6625530883204
 31
0.0
  0
LINE
  5
19D
330
16A
100
AcDbEntity
  8
100
  6
Continuous
 62
     7
370
    30
100
AcDbLine
 10
497.9806534324993
 20
-203.6625530883204
 30
0.0
 11
501.3241767147146
 21
-211.9355232894069
 31
0.0
  0
LINE
  5
19E
330
16A
100
AcDbEntity
  8
100
  6
Continuous
 62
     7
370
    30
100
AcDbLine
 10
501.3241767147146
 20
-211.9355232894069
 30
0.0
 11
505.0059947147146
 21
-218.3126191296284
 31
0.0
  0
LINE
  5
19F
330
16A
100
AcDbEntity
  8
100
  6
Continuous
 62
     7
370
    30
100
AcDbLine
 10
505.0059947147146
 20
-218.3126191296284
 30
0.0
 11
507.7673587147145
 21
-223.0954418758198
 31
0.0
  0
ENDBLK
  5
16C
330
16A
100
AcDbEntity
  8
0
100
AcDbBlockEnd
  0
BLOCK
  5
1A2
330
1A1
100
AcDbEntity
  8
0
100
AcDbBlockBegin
  2
*G14
 70
     1
 10
0.0
 20
0.0
 30
0.0
  3
*G14
  1

  0
LINE
  5
1A4
330
1A1
100
AcDbEntity
  8
100
  6
Continuous
 62
     7
370
    30
100
AcDbLine
 10
529.5165012010045
 20
-38.35697168312902
 30
0.0
 11
528.4283985012744
 21
-36.71777652334333
 31
0.0
  0
LINE
  5
1A5
330
1A1
100
AcDbEntity
  8
100
  6
Continuous
 62
     7
370
    30
100
AcDbLine
 10
528.4283985012744
 20
-36.71777652334333
 30
0.0
 11
529.3805575618693
 21
-35.17605439318061
 31
0.0
  0
LINE
  5
1A6
330
1A1
100
AcDbEntity
  8
100
  6
Continuous
 62
     7
370
    30
100
AcDbLine
 10
529.3805575618693
 20
-35.17605439318061
 30
0.0
 11
534.9370330116031
 21
-35.22742618312907
 31
0.0
  0
LINE
  5
1A7
330
1A1
100
AcDbEntity
  8
100
  6
Continuous
 62
     7
370
    30
100
AcDbLine
 10
534.9370330116031
 20
-35.22742618312907
 30
0.0
 11
543.3391297178501
 21
-35.05301056845576
 31
0.0
  0
LINE
  5
1A8
330
1A1
100
AcDbEntity
  8
100
  6
Continuous
 62
     7
370
    30
100
AcDbLine
 10
543.3391297178501
 20
-35.05301056845576
 30
0.0
 11
554.0389792836131
 21
-34.68569364970114
 31
0.0
  0
LINE
  5
1A9
330
1A1
100
AcDbEntity
  8
100
  6
Continuous
 62
     7
370
    30
100
AcDbLine
 10
554.0389792836131
 20
-34.68569364970114
 30
0.0
 11
562.2778322591581
 21
-35.45580559943494
 31
0.0
  0
LINE
  5
1AA
330
1A1
100
AcDbEntity
  8
100
  6
Continuous
 62
     7
370
    30
100
AcDbLine
 10
562.2778322591581
 20
-35.45580559943494
 30
0.0
 11
568.2309689743778
 21
-35.70330485459942
 31
0.0
  0
LINE
  5
1AB
330
1A1
100
AcDbEntity
  8
100
  6
Continuous
 62
     7
370
    30
100
AcDbLine
 10
568.2309689743778
 20
-35.70330485459942
 30
0.0
 11
567.1813368841599
 21
-39.28528874508731
 31
0.0
  0
ENDBLK
  5
1A3
330
1A1
100
AcDbEntity
  8
0
100
AcDbBlockEnd
  0
BLOCK
  5
1AE
330
1AD
100
AcDbEntity
  8
0
100
AcDbBlockBegin
  2
*G15
 70
     1
 10
0.0
 20
0.0
 30
0.0
  3
*G15
  1

  0
LINE
  5
1B0
330
1AD
100
AcDbEntity
  8
100
  6
Continuous
 62
     7
370
    30
100
AcDbLine
 10
568.2309689743778
 20
-35.70330485459942
 30
0.0
 11
567.8096019950355
 21
-9.446203837746566
 31
0.0
  0
LINE
  5
1B1
330
1AD
100
AcDbEntity
  8
100
  6
Continuous
 62
     7
370
    30
100
AcDbLine
 10
567.8096019950355
 20
-9.446203837746566
 30
0.0
 11
565.0329767347105
 21
-8.073311813284022
 31
0.0
  0
LINE
  5
1B2
330
1AD
100
AcDbEntity
  8
100
  6
Continuous
 62
     7
370
    30
100
AcDbLine
 10
565.0329767347105
 20
-8.073311813284022
 30
0.0
 11
562.456884274655
 21
-7.293206787473139
 31
0.0
  0
LINE
  5
1B3
330
1AD
100
AcDbEntity
  8
100
  6
Continuous
 62
     7
370
    30
100
AcDbLine
 10
562.456884274655
 20
-7.293206787473139
 30
0.0
 11
561.4586243404104
 21
-5.318713862201662
 31
0.0
  0
LINE
  5
1B4
330
1AD
100
AcDbEntity
  8
100
  6
Continuous
 62
     7
370
    30
100
AcDbLine
 10
561.4586243404104
 20
-5.318713862201662
 30
0.0
 11
563.2041041999265
 21
-4.169247662471321
 31
0.0
  0
LINE
  5
1B5
330
1AD
100
AcDbEntity
  8
100
  6
Continuous
 62
     7
370
    30
100
AcDbLine
 10
563.2041041999265
 20
-4.169247662471321
 30
0.0
 11
561.6339036703035
 21
-3.658670567092656
 31
0.0
  0
LINE
  5
1B6
330
1AD
100
AcDbEntity
  8
100
  6
Continuous
 62
     7
370
    30
100
AcDbLine
 10
561.6339036703035
 20
-3.658670567092656
 30
0.0
 11
550.9581271689475
 21
-2.59495725649424
 31
0.0
  0
LINE
  5
1B7
330
1AD
100
AcDbEntity
  8
100
  6
Continuous
 62
     7
370
    30
100
AcDbLine
 10
550.9581271689475
 20
-2.59495725649424
 30
0.0
 11
543.0425349936722
 21
-2.63020343692267
 31
0.0
  0
LINE
  5
1B8
330
1AD
100
AcDbEntity
  8
100
  6
Continuous
 62
     7
370
    30
100
AcDbLine
 10
543.0425349936722
 20
-2.63020343692267
 30
0.0
 11
537.3797734781828
 21
-2.640194780949173
 31
0.0
  0
LINE
  5
1B9
330
1AD
100
AcDbEntity
  8
100
  6
Continuous
 62
     7
370
    30
100
AcDbLine
 10
537.3797734781828
 20
-2.640194780949173
 30
0.0
 11
535.2989963531807
 21
-3.699819081218834
 31
0.0
  0
LINE
  5
1BA
330
1AD
100
AcDbEntity
  8
100
  6
Continuous
 62
     7
370
    30
100
AcDbLine
 10
535.2989963531807
 20
-3.699819081218834
 30
0.0
 11
536.1789354885042
 21
-6.451190371166945
 31
0.0
  0
LINE
  5
1BB
330
1AD
100
AcDbEntity
  8
100
  6
Continuous
 62
     7
370
    30
100
AcDbLine
 10
536.1789354885042
 20
-6.451190371166945
 30
0.0
 11
534.3436128635024
 21
-7.935954336383134
 31
0.0
  0
LINE
  5
1BC
330
1AD
100
AcDbEntity
  8
100
  6
Continuous
 62
     7
370
    30
100
AcDbLine
 10
534.3436128635024
 20
-7.935954336383134
 30
0.0
 11
533.1744785683933
 21
-8.610954336383315
 31
0.0
  0
LINE
  5
1BD
330
1AD
100
AcDbEntity
  8
100
  6
Continuous
 62
     7
370
    30
100
AcDbLine
 10
533.1744785683933
 20
-8.610954336383315
 30
0.0
 11
528.9964806520945
 21
-10.45626967143664
 31
0.0
  0
LINE
  5
1BE
330
1AD
100
AcDbEntity
  8
100
  6
Continuous
 62
     7
370
    30
100
AcDbLine
 10
528.9964806520945
 20
-10.45626967143664
 30
0.0
 11
528.4195868311672
 21
-34.73887826301791
 31
0.0
  0
LINE
  5
1BF
330
1AD
100
AcDbEntity
  8
100
  6
Continuous
 62
     7
370
    30
100
AcDbLine
 10
528.4195868311672
 20
-34.73887826301791
 30
0.0
 11
529.3805575618693
 21
-35.17605439318061
 31
0.0
  0
ENDBLK
  5
1AF
330
1AD
100
AcDbEntity
  8
0
100
AcDbBlockEnd
  0
BLOCK
  5
1C2
330
1C1
100
AcDbEntity
  8
0
100
AcDbBlockBegin
  2
*G16
 70
     1
 10
0.0
 20
0.0
 30
0.0
  3
*G16
  1

  0
LINE
  5
1C4
330
1C1
100
AcDbEntity
  8
100
  6
Continuous
 62
     7
370
    30
100
AcDbLine
 10
565.6718672050873
 20
-11.38899256844854
 30
0.0
 11
558.1441232591654
 21
-9.641467587742738
 31
0.0
  0
LINE
  5
1C5
330
1C1
100
AcDbEntity
  8
100
  6
Continuous
 62
     7
370
    30
100
AcDbLine
 10
558.1441232591654
 20
-9.641467587742738
 30
0.0
 11
549.5250521844297
 21
-8.94916057225339
 31
0.0
  0
LINE
  5
1C6
330
1C1
100
AcDbEntity
  8
100
  6
Continuous
 62
     7
370
    30
100
AcDbLine
 10
549.5250521844297
 20
-8.94916057225339
 30
0.0
 11
539.6919247488294
 21
-9.09950225649402
 31
0.0
  0
LINE
  5
1C7
330
1C1
100
AcDbEntity
  8
100
  6
Continuous
 62
     7
370
    30
100
AcDbLine
 10
539.6919247488294
 20
-9.09950225649402
 30
0.0
 11
533.3629745374216
 21
-9.919258931761874
 31
0.0
  0
ENDBLK
  5
1C3
330
1C1
100
AcDbEntity
  8
0
100
AcDbBlockEnd
  0
BLOCK
  5
1CA
330
1C9
100
AcDbEntity
  8
0
100
AcDbBlockBegin
  2
*G17
 70
     1
 10
0.0
 20
0.0
 30
0.0
  3
*G17
  1

  0
LINE
  5
1CC
330
1C9
100
AcDbEntity
  8
100
  6
Continuous
 62
     7
370
    30
100
AcDbLine
 10
537.7491360181273
 20
-6.961767466545666
 30
0.0
 11
544.2501398982934
 21
-7.176382487196065
 31
0.0
  0
LINE
  5
1CD
330
1C9
100
AcDbEntity
  8
100
  6
Continuous
 62
     7
370
    30
100
AcDbLine
 10
544.2501398982934
 20
-7.176382487196065
 30
0.0
 11
551.327489708892
 21
-6.916529942090733
 31
0.0
  0
LINE
  5
1CE
330
1C9
100
AcDbEntity
  8
100
  6
Continuous
 62
     7
370
    30
100
AcDbLine
 10
551.327489708892
 20
-6.916529942090733
 30
0.0
 11
559.7789134499229
 21
-7.563915257850226
 31
0.0
  0
ENDBLK
  5
1CB
330
1C9
100
AcDbEntity
  8
0
100
AcDbBlockEnd
  0
BLOCK
  5
1D1
330
1D0
100
AcDbEntity
  8
0
100
AcDbBlockBegin
  2
*G18
 70
     1
 10
0.0
 20
0.0
 30
0.0
  3
*G18
  1

  0
LINE
  5
1D3
330
1D0
100
AcDbEntity
  8
100
  6
Continuous
 62
     7
370
    30
100
AcDbLine
 10
535.2989963531807
 20
-3.699819081218834
 30
0.0
 11
532.052310228179
 21
-2.740029756486479
 31
0.0
  0
LINE
  5
1D4
330
1D0
100
AcDbEntity
  8
100
  6
Continuous
 62
     7
370
    30
100
AcDbLine
 10
532.052310228179
 20
-2.740029756486479
 30
0.0
 11
530.8130007629629
 21
-1.329846796431241
 31
0.0
  0
LINE
  5
1D5
330
1D0
100
AcDbEntity
  8
100
  6
Continuous
 62
     7
370
    30
100
AcDbLine
 10
530.8130007629629
 20
-1.329846796431241
 30
0.0
 11
533.380281052911
 21
-0.1310526958919809
 31
0.0
  0
LINE
  5
1D6
330
1D0
100
AcDbEntity
  8
100
  6
Continuous
 62
     7
370
    30
100
AcDbLine
 10
533.380281052911
 20
-0.1310526958919809
 30
0.0
 11
539.3005335336169
 21
0.1693152138903429
 31
0.0
  0
LINE
  5
1D7
330
1D0
100
AcDbEntity
  8
100
  6
Continuous
 62
     7
370
    30
100
AcDbLine
 10
539.3005335336169
 20
0.1693152138903429
 30
0.0
 11
546.1039495787294
 21
0.4127249587257893
 31
0.0
  0
LINE
  5
1D8
330
1D0
100
AcDbEntity
  8
100
  6
Continuous
 62
     7
370
    30
100
AcDbLine
 10
546.1039495787294
 20
0.4127249587257893
 30
0.0
 11
554.0195431200301
 21
0.4479707731292137
 31
0.0
  0
LINE
  5
1D9
330
1D0
100
AcDbEntity
  8
100
  6
Continuous
 62
     7
370
    30
100
AcDbLine
 10
554.0195431200301
 20
0.4479707731292137
 30
0.0
 11
561.8946204306286
 21
-0.6738812423606078
 31
0.0
  0
LINE
  5
1DA
330
1D0
100
AcDbEntity
  8
100
  6
Continuous
 62
     7
370
    30
100
AcDbLine
 10
561.8946204306286
 20
-0.6738812423606078
 30
0.0
 11
567.6845139151463
 21
-1.865908927957321
 31
0.0
  0
LINE
  5
1DB
330
1D0
100
AcDbEntity
  8
100
  6
Continuous
 62
     7
370
    30
100
AcDbLine
 10
567.6845139151463
 20
-1.865908927957321
 30
0.0
 11
566.7159129203072
 21
-3.133696792633714
 31
0.0
  0
LINE
  5
1DC
330
1D0
100
AcDbEntity
  8
100
  6
Continuous
 62
     7
370
    30
100
AcDbLine
 10
566.7159129203072
 20
-3.133696792633714
 30
0.0
 11
566.1110880904142
 21
-4.049745457580343
 31
0.0
  0
LINE
  5
1DD
330
1D0
100
AcDbEntity
  8
100
  6
Continuous
 62
     7
370
    30
100
AcDbLine
 10
566.1110880904142
 20
-4.049745457580343
 30
0.0
 11
563.2041041999265
 21
-4.169247662471321
 31
0.0
  0
ENDBLK
  5
1D2
330
1D0
100
AcDbEntity
  8
0
100
AcDbBlockEnd
  0
BLOCK
  5
1E0
330
1DF
100
AcDbEntity
  8
0
100
AcDbBlockBegin
  2
*G19
 70
     1
 10
0.0
 20
0.0
 30
0.0
  3
*G19
  1

  0
LINE
  5
1E2
330
1DF
100
AcDbEntity
  8
100
  6
Continuous
 62
     7
370
    30
100
AcDbLine
 10
528.9321659852459
 20
-1.140327400782667
 30
0.0
 11
530.0481583635024
 21
-0.4960089007828401
 31
0.0
  0
LINE
  5
1E3
330
1DF
100
AcDbEntity
  8
100
  6
Continuous
 62
     7
370
    30
100
AcDbLine
 10
530.0481583635024
 20
-0.4960089007828401
 30
0.0
 11
532.8119148236036
 21
-0.3964515094245371
 31
0.0
  0
ENDBLK
  5
1E1
330
1DF
100
AcDbEntity
  8
0
100
AcDbBlockEnd
  0
BLOCK
  5
1E6
330
1E5
100
AcDbEntity
  8
0
100
AcDbBlockBegin
  2
*G20
 70
     1
 10
0.0
 20
0.0
 30
0.0
  3
*G20
  1

  0
LINE
  5
1E8
330
1E5
100
AcDbEntity
  8
100
  6
Continuous
 62
     7
370
    30
100
AcDbLine
 10
532.052310228179
 20
-2.740029756486479
 30
0.0
 11
528.9321659852459
 21
-1.140327400782667
 31
0.0
  0
LINE
  5
1E9
330
1E5
100
AcDbEntity
  8
100
  6
Continuous
 62
     7
370
    30
100
AcDbLine
 10
528.9321659852459
 20
-1.140327400782667
 30
0.0
 11
525.4789275773661
 21
0.0544929723131418
 31
0.0
  0
LINE
  5
1EA
330
1E5
100
AcDbEntity
  8
100
  6
Continuous
 62
     7
370
    30
100
AcDbLine
 10
525.4789275773661
 20
0.0544929723131418
 30
0.0
 11
524.7337532732844
 21
3.308810727477464
 31
0.0
  0
LINE
  5
1EB
330
1E5
100
AcDbEntity
  8
100
  6
Continuous
 62
     7
370
    30
100
AcDbLine
 10
524.7337532732844
 20
3.308810727477464
 30
0.0
 11
523.9929839382309
 21
5.573678852479247
 31
0.0
  0
LINE
  5
1EC
330
1E5
100
AcDbEntity
  8
100
  6
Continuous
 62
     7
370
    30
100
AcDbLine
 10
523.9929839382309
 20
5.573678852479247
 30
0.0
 11
523.485632137961
 21
6.697891947858011
 31
0.0
  0
LINE
  5
1ED
330
1E5
100
AcDbEntity
  8
100
  6
Continuous
 62
     7
370
    30
100
AcDbLine
 10
523.485632137961
 20
6.697891947858011
 30
0.0
 11
521.8091465425824
 21
7.147104177211418
 31
0.0
  0
LINE
  5
1EE
330
1E5
100
AcDbEntity
  8
100
  6
Continuous
 62
     7
370
    30
100
AcDbLine
 10
521.8091465425824
 20
7.147104177211418
 30
0.0
 11
520.5533951431217
 21
8.83122140275276
 31
0.0
  0
LINE
  5
1EF
330
1E5
100
AcDbEntity
  8
100
  6
Continuous
 62
     7
370
    30
100
AcDbLine
 10
520.5533951431217
 20
8.83122140275276
 30
0.0
 11
522.5196659852458
 21
9.96644840275269
 31
0.0
  0
LINE
  5
1F0
330
1E5
100
AcDbEntity
  8
100
  6
Continuous
 62
     7
370
    30
100
AcDbLine
 10
522.5196659852458
 20
9.96644840275269
 30
0.0
 11
527.8569639659516
 21
11.27652312503534
 31
0.0
  0
LINE
  5
1F1
330
1E5
100
AcDbEntity
  8
100
  6
Continuous
 62
     7
370
    30
100
AcDbLine
 10
527.8569639659516
 20
11.27652312503534
 30
0.0
 11
535.2449471586186
 21
11.85743286987133
 31
0.0
  0
LINE
  5
1F2
330
1E5
100
AcDbEntity
  8
100
  6
Continuous
 62
     7
370
    30
100
AcDbLine
 10
535.2449471586186
 20
11.85743286987133
 30
0.0
 11
543.1216371167718
 21
12.08278766688261
 31
0.0
  0
LINE
  5
1F3
330
1E5
100
AcDbEntity
  8
100
  6
Continuous
 62
     7
370
    30
100
AcDbLine
 10
543.1216371167718
 20
12.08278766688261
 30
0.0
 11
549.653322496938
 21
11.81503072937983
 31
0.0
  0
LINE
  5
1F4
330
1E5
100
AcDbEntity
  8
100
  6
Continuous
 62
     7
370
    30
100
AcDbLine
 10
549.653322496938
 20
11.81503072937983
 30
0.0
 11
557.0374908075365
 21
11.54345804378306
 31
0.0
  0
LINE
  5
1F5
330
1E5
100
AcDbEntity
  8
100
  6
Continuous
 62
     7
370
    30
100
AcDbLine
 10
557.0374908075365
 20
11.54345804378306
 30
0.0
 11
565.9754177135138
 21
11.03524252829345
 31
0.0
  0
LINE
  5
1F6
330
1E5
100
AcDbEntity
  8
100
  6
Continuous
 62
     7
370
    30
100
AcDbLine
 10
565.9754177135138
 20
11.03524252829345
 30
0.0
 11
571.5752025814488
 21
9.804312625574653
 31
0.0
  0
LINE
  5
1F7
330
1E5
100
AcDbEntity
  8
100
  6
Continuous
 62
     7
370
    30
100
AcDbLine
 10
571.5752025814488
 20
9.804312625574653
 30
0.0
 11
576.263344619491
 21
8.18875842258592
 31
0.0
  0
LINE
  5
1F8
330
1E5
100
AcDbEntity
  8
100
  6
Continuous
 62
     7
370
    30
100
AcDbLine
 10
576.263344619491
 20
8.18875842258592
 30
0.0
 11
576.8073955363435
 21
7.36916059269322
 31
0.0
  0
LINE
  5
1F9
330
1E5
100
AcDbEntity
  8
100
  6
Continuous
 62
     7
370
    30
100
AcDbLine
 10
576.8073955363435
 20
7.36916059269322
 30
0.0
 11
574.6510152116113
 21
6.195030875570751
 31
0.0
  0
LINE
  5
1FA
330
1E5
100
AcDbEntity
  8
100
  6
Continuous
 62
     7
370
    30
100
AcDbLine
 10
574.6510152116113
 20
6.195030875570751
 30
0.0
 11
573.6413083991104
 21
5.612076375571064
 31
0.0
  0
LINE
  5
1FB
330
1E5
100
AcDbEntity
  8
100
  6
Continuous
 62
     7
370
    30
100
AcDbLine
 10
573.6413083991104
 20
5.612076375571064
 30
0.0
 11
573.2271831387852
 21
2.89299836715179
 31
0.0
  0
LINE
  5
1FC
330
1E5
100
AcDbEntity
  8
100
  6
Continuous
 62
     7
370
    30
100
AcDbLine
 10
573.2271831387852
 20
2.89299836715179
 30
0.0
 11
571.7863181787299
 21
1.706831684813437
 31
0.0
  0
LINE
  5
1FD
330
1E5
100
AcDbEntity
  8
100
  6
Continuous
 62
     7
370
    30
100
AcDbLine
 10
571.7863181787299
 20
1.706831684813437
 30
0.0
 11
571.2801469184047
 21
-0.8528179749720266
 31
0.0
  0
LINE
  5
1FE
330
1E5
100
AcDbEntity
  8
100
  6
Continuous
 62
     7
370
    30
100
AcDbLine
 10
571.2801469184047
 20
-0.8528179749720266
 30
0.0
 11
571.1700464705805
 21
-1.766664405404413
 31
0.0
  0
LINE
  5
1FF
330
1E5
100
AcDbEntity
  8
100
  6
Continuous
 62
     7
370
    30
100
AcDbLine
 10
571.1700464705805
 20
-1.766664405404413
 30
0.0
 11
567.1629592077674
 21
-2.54856367585046
 31
0.0
  0
ENDBLK
  5
1E7
330
1E5
100
AcDbEntity
  8
0
100
AcDbBlockEnd
  0
BLOCK
  5
202
330
201
100
AcDbEntity
  8
0
100
AcDbBlockBegin
  2
*G21
 70
     1
 10
0.0
 20
0.0
 30
0.0
  3
*G21
  1

  0
LINE
  5
204
330
201
100
AcDbEntity
  8
100
  6
Continuous
 62
     7
370
    30
100
AcDbLine
 10
569.4135518404179
 20
-0.4425084627411593
 30
0.0
 11
562.153723177374
 21
0.9637016358959727
 31
0.0
  0
LINE
  5
205
330
201
100
AcDbEntity
  8
100
  6
Continuous
 62
     7
370
    30
100
AcDbLine
 10
562.153723177374
 20
0.9637016358959727
 30
0.0
 11
554.4013742328008
 21
1.872983885899771
 31
0.0
  0
LINE
  5
206
330
201
100
AcDbEntity
  8
100
  6
Continuous
 62
     7
370
    30
100
AcDbLine
 10
554.4013742328008
 20
1.872983885899771
 30
0.0
 11
543.7300035664982
 21
1.947248066335646
 31
0.0
  0
LINE
  5
207
330
201
100
AcDbEntity
  8
100
  6
Continuous
 62
     7
370
    30
100
AcDbLine
 10
543.7300035664982
 20
1.947248066335646
 30
0.0
 11
535.8308536914927
 21
1.638068986446683
 31
0.0
  0
LINE
  5
208
330
201
100
AcDbEntity
  8
100
  6
Continuous
 62
     7
370
    30
100
AcDbLine
 10
535.8308536914927
 20
1.638068986446683
 30
0.0
 11
530.3828651760032
 21
1.256079894326263
 31
0.0
  0
LINE
  5
209
330
201
100
AcDbEntity
  8
100
  6
Continuous
 62
     7
370
    30
100
AcDbLine
 10
530.3828651760032
 20
1.256079894326263
 30
0.0
 11
527.2041506205692
 21
0.6254110070968864
 31
0.0
  0
LINE
  5
20A
330
201
100
AcDbEntity
  8
100
  6
Continuous
 62
     7
370
    30
100
AcDbLine
 10
527.2041506205692
 20
0.6254110070968864
 30
0.0
 11
526.3787564832677
 21
-0.2568484108275584
 31
0.0
  0
ENDBLK
  5
203
330
201
100
AcDbEntity
  8
0
100
AcDbBlockEnd
  0
BLOCK
  5
20D
330
20C
100
AcDbEntity
  8
0
100
AcDbBlockBegin
  2
*G22
 70
     1
 10
0.0
 20
0.0
 30
0.0
  3
*G22
  1

  0
LINE
  5
20F
330
20C
100
AcDbEntity
  8
100
  6
Continuous
 62
     7
370
    30
100
AcDbLine
 10
521.4898510311067
 20
7.575318225715762
 30
0.0
 11
525.0059160458408
 21
8.851046977480962
 31
0.0
  0
LINE
  5
210
330
20C
100
AcDbEntity
  8
100
  6
Continuous
 62
     7
370
    30
100
AcDbLine
 10
525.0059160458408
 20
8.851046977480962
 30
0.0
 11
531.8378113564391
 21
9.536039187532765
 31
0.0
  0
LINE
  5
211
330
20C
100
AcDbEntity
  8
100
  6
Continuous
 62
     7
370
    30
100
AcDbLine
 10
531.8378113564391
 20
9.536039187532765
 30
0.0
 11
535.4460705458481
 21
9.422712944599766
 31
0.0
  0
LINE
  5
212
330
20C
100
AcDbEntity
  8
100
  6
Continuous
 62
     7
370
    30
100
AcDbLine
 10
535.4460705458481
 20
9.422712944599766
 30
0.0
 11
536.8684493164945
 21
4.504536646232168
 31
0.0
  0
LINE
  5
213
330
20C
100
AcDbEntity
  8
100
  6
Continuous
 62
     7
370
    30
100
AcDbLine
 10
536.8684493164945
 20
4.504536646232168
 30
0.0
 11
538.3383831289956
 21
4.290354599217039
 31
0.0
  0
LINE
  5
214
330
20C
100
AcDbEntity
  8
100
  6
Continuous
 62
     7
370
    30
100
AcDbLine
 10
538.3383831289956
 20
4.290354599217039
 30
0.0
 11
539.0318701844297
 21
9.225563784813744
 31
0.0
  0
ENDBLK
  5
20E
330
20C
100
AcDbEntity
  8
0
100
AcDbBlockEnd
  0
BLOCK
  5
217
330
216
100
AcDbEntity
  8
0
100
AcDbBlockBegin
  2
*G23
 70
     1
 10
0.0
 20
0.0
 30
0.0
  3
*G23
  1

  0
LINE
  5
219
330
216
100
AcDbEntity
  8
100
  6
Continuous
 62
     7
370
    30
100
AcDbLine
 10
538.9700745768199
 20
4.300778916878812
 30
0.0
 11
540.2888021238348
 21
3.857583804108231
 31
0.0
  0
LINE
  5
21A
330
216
100
AcDbEntity
  8
100
  6
Continuous
 62
     7
370
    30
100
AcDbLine
 10
540.2888021238348
 20
3.857583804108231
 30
0.0
 11
541.4014108616074
 21
8.680488941340968
 31
0.0
  0
ENDBLK
  5
218
330
216
100
AcDbEntity
  8
0
100
AcDbBlockEnd
  0
BLOCK
  5
21D
330
21C
100
AcDbEntity
  8
0
100
AcDbBlockBegin
  2
*G24
 70
     1
 10
0.0
 20
0.0
 30
0.0
  3
*G24
  1

  0
LINE
  5
21F
330
21C
100
AcDbEntity
  8
100
  6
Continuous
 62
     7
370
    30
100
AcDbLine
 10
538.7025914015518
 20
9.673163366612584
 30
0.0
 11
546.3075506947586
 21
9.387351481285691
 31
0.0
  0
LINE
  5
220
330
21C
100
AcDbEntity
  8
100
  6
Continuous
 62
     7
370
    30
100
AcDbLine
 10
546.3075506947586
 20
9.387351481285691
 30
0.0
 11
552.7389698578025
 21
9.415988726121554
 31
0.0
  0
LINE
  5
221
330
21C
100
AcDbEntity
  8
100
  6
Continuous
 62
     7
370
    30
100
AcDbLine
 10
552.7389698578025
 20
9.415988726121554
 30
0.0
 11
559.4772070208465
 21
8.913201606280268
 31
0.0
  0
LINE
  5
222
330
21C
100
AcDbEntity
  8
100
  6
Continuous
 62
     7
370
    30
100
AcDbLine
 10
559.4772070208465
 20
8.913201606280268
 30
0.0
 11
565.9108289184048
 21
8.447113603021876
 31
0.0
  0
LINE
  5
223
330
21C
100
AcDbEntity
  8
100
  6
Continuous
 62
     7
370
    30
100
AcDbLine
 10
565.9108289184048
 20
8.447113603021876
 30
0.0
 11
569.895491190961
 21
7.559112095951491
 31
0.0
  0
LINE
  5
224
330
21C
100
AcDbEntity
  8
100
  6
Continuous
 62
     7
370
    30
100
AcDbLine
 10
569.895491190961
 20
7.559112095951491
 30
0.0
 11
573.4078908643265
 21
6.752731405193913
 31
0.0
  0
LINE
  5
225
330
21C
100
AcDbEntity
  8
100
  6
Continuous
 62
     7
370
    30
100
AcDbLine
 10
573.4078908643265
 20
6.752731405193913
 30
0.0
 11
574.6510152116113
 21
6.195030875570751
 31
0.0
  0
ENDBLK
  5
21E
330
21C
100
AcDbEntity
  8
0
100
AcDbBlockEnd
  0
BLOCK
  5
228
330
227
100
AcDbEntity
  8
0
100
AcDbBlockBegin
  2
*G25
 70
     1
 10
0.0
 20
0.0
 30
0.0
  3
*G25
  1

  0
LINE
  5
22A
330
227
100
AcDbEntity
  8
100
  6
Continuous
 62
     7
370
    30
100
AcDbLine
 10
576.8073955363435
 20
7.36916059269322
 30
0.0
 11
577.4976572966685
 21
9.609956153287953
 31
0.0
  0
LINE
  5
22B
330
227
100
AcDbEntity
  8
100
  6
Continuous
 62
     7
370
    30
100
AcDbLine
 10
577.4976572966685
 20
9.609956153287953
 30
0.0
 11
577.3047551265614
 21
11.90770851280388
 31
0.0
  0
LINE
  5
22C
330
227
100
AcDbEntity
  8
100
  6
Continuous
 62
     7
370
    30
100
AcDbLine
 10
577.3047551265614
 20
11.90770851280388
 30
0.0
 11
570.8952066594358
 21
13.80482811144094
 31
0.0
  0
LINE
  5
22D
330
227
100
AcDbEntity
  8
100
  6
Continuous
 62
     7
370
    30
100
AcDbLine
 10
570.8952066594358
 20
13.80482811144094
 30
0.0
 11
563.4167897482977
 21
14.73055216171434
 31
0.0
  0
LINE
  5
22E
330
227
100
AcDbEntity
  8
100
  6
Continuous
 62
     7
370
    30
100
AcDbLine
 10
563.4167897482977
 20
14.73055216171434
 30
0.0
 11
556.032621937699
 21
15.00212398128576
 31
0.0
  0
LINE
  5
22F
330
227
100
AcDbEntity
  8
100
  6
Continuous
 62
     7
370
    30
100
AcDbLine
 10
556.032621937699
 20
15.00212398128576
 30
0.0
 11
548.3520594447622
 21
15.17343044976036
 31
0.0
  0
LINE
  5
230
330
227
100
AcDbEntity
  8
100
  6
Continuous
 62
     7
370
    30
100
AcDbLine
 10
548.3520594447622
 20
15.17343044976036
 30
0.0
 11
540.8002429344334
 21
15.48992433508727
 31
0.0
  0
LINE
  5
231
330
227
100
AcDbEntity
  8
100
  6
Continuous
 62
     7
370
    30
100
AcDbLine
 10
540.8002429344334
 20
15.48992433508727
 30
0.0
 11
533.6001656238346
 21
15.44264205546767
 31
0.0
  0
LINE
  5
232
330
227
100
AcDbEntity
  8
100
  6
Continuous
 62
     7
370
    30
100
AcDbLine
 10
533.6001656238346
 20
15.44264205546767
 30
0.0
 11
527.8168807088848
 21
15.15049536280816
 31
0.0
  0
LINE
  5
233
330
227
100
AcDbEntity
  8
100
  6
Continuous
 62
     7
370
    30
100
AcDbLine
 10
527.8168807088848
 20
15.15049536280816
 30
0.0
 11
525.9749486482899
 21
15.14990527584848
 31
0.0
  0
LINE
  5
234
330
227
100
AcDbEntity
  8
100
  6
Continuous
 62
     7
370
    30
100
AcDbLine
 10
525.9749486482899
 20
15.14990527584848
 30
0.0
 11
522.412200745571
 21
13.58894765791717
 31
0.0
  0
LINE
  5
235
330
227
100
AcDbEntity
  8
100
  6
Continuous
 62
     7
370
    30
100
AcDbLine
 10
522.412200745571
 20
13.58894765791717
 30
0.0
 11
520.0657114382308
 21
12.37591435764756
 31
0.0
  0
LINE
  5
236
330
227
100
AcDbEntity
  8
100
  6
Continuous
 62
     7
370
    30
100
AcDbLine
 10
520.0657114382308
 20
12.37591435764756
 30
0.0
 11
519.5124158776359
 21
10.14334038020013
 31
0.0
  0
LINE
  5
237
330
227
100
AcDbEntity
  8
100
  6
Continuous
 62
     7
370
    30
100
AcDbLine
 10
519.5124158776359
 20
10.14334038020013
 30
0.0
 11
520.5533951431217
 21
8.83122140275276
 31
0.0
  0
ENDBLK
  5
229
330
227
100
AcDbEntity
  8
0
100
AcDbBlockEnd
  0
BLOCK
  5
23A
330
239
100
AcDbEntity
  8
0
100
AcDbBlockBegin
  2
*G26
 70
     1
 10
0.0
 20
0.0
 30
0.0
  3
*G26
  1

  0
LINE
  5
23C
330
239
100
AcDbEntity
  8
100
  6
Continuous
 62
     7
370
    30
100
AcDbLine
 10
527.1703591083452
 20
16.76121162313336
 30
0.0
 11
537.1629140265537
 21
17.00359880737403
 31
0.0
  0
LINE
  5
23D
330
239
100
AcDbEntity
  8
100
  6
Continuous
 62
     7
370
    30
100
AcDbLine
 10
537.1629140265537
 20
17.00359880737403
 30
0.0
 11
546.9039959621541
 21
17.31336797422261
 31
0.0
  0
LINE
  5
23E
330
239
100
AcDbEntity
  8
100
  6
Continuous
 62
     7
370
    30
100
AcDbLine
 10
546.9039959621541
 20
17.31336797422261
 30
0.0
 11
556.747547215416
 21
16.83201907666432
 31
0.0
  0
LINE
  5
23F
330
239
100
AcDbEntity
  8
100
  6
Continuous
 62
     7
370
    30
100
AcDbLine
 10
556.747547215416
 20
16.83201907666432
 30
0.0
 11
563.7147965781904
 21
16.17802519133727
 31
0.0
  0
LINE
  5
240
330
239
100
AcDbEntity
  8
100
  6
Continuous
 62
     7
370
    30
100
AcDbLine
 10
563.7147965781904
 20
16.17802519133727
 30
0.0
 11
571.0337860067203
 21
15.16025564106428
 31
0.0
  0
ENDBLK
  5
23B
330
239
100
AcDbEntity
  8
0
100
AcDbBlockEnd
  0
BLOCK
  5
243
330
242
100
AcDbEntity
  8
0
100
AcDbBlockBegin
  2
*G27
 70
     1
 10
0.0
 20
0.0
 30
0.0
  3
*G27
  1

  0
LINE
  5
245
330
242
100
AcDbEntity
  8
100
  6
Continuous
 62
     7
370
    30
100
AcDbLine
 10
577.3047551265614
 20
11.90770851280388
 30
0.0
 11
576.0999434094393
 21
14.11723162041369
 31
0.0
  0
LINE
  5
246
330
242
100
AcDbEntity
  8
100
  6
Continuous
 62
     7
370
    30
100
AcDbLine
 10
576.0999434094393
 20
14.11723162041369
 30
0.0
 11
572.4154897012899
 21
15.95798264106395
 31
0.0
  0
LINE
  5
247
330
242
100
AcDbEntity
  8
100
  6
Continuous
 62
     7
370
    30
100
AcDbLine
 10
572.4154897012899
 20
15.95798264106395
 30
0.0
 11
571.2271202844375
 21
17.89357284921346
 31
0.0
  0
LINE
  5
248
330
242
100
AcDbEntity
  8
100
  6
Continuous
 62
     7
370
    30
100
AcDbLine
 10
571.2271202844375
 20
17.89357284921346
 30
0.0
 11
571.2117005447626
 21
21.35664462176976
 31
0.0
  0
LINE
  5
249
330
242
100
AcDbEntity
  8
100
  6
Continuous
 62
     7
370
    30
100
AcDbLine
 10
571.2117005447626
 20
21.35664462176976
 30
0.0
 11
571.7488270673226
 21
35.76722219460305
 31
0.0
  0
LINE
  5
24A
330
242
100
AcDbEntity
  8
100
  6
Continuous
 62
     7
370
    30
100
AcDbLine
 10
571.7488270673226
 20
35.76722219460305
 30
0.0
 11
572.3432275795539
 21
37.31496230737406
 31
0.0
  0
LINE
  5
24B
330
242
100
AcDbEntity
  8
100
  6
Continuous
 62
     7
370
    30
100
AcDbLine
 10
572.3432275795539
 20
37.31496230737406
 30
0.0
 11
573.0565402097164
 21
37.79765059025146
 31
0.0
  0
LINE
  5
24C
330
242
100
AcDbEntity
  8
100
  6
Continuous
 62
     7
370
    30
100
AcDbLine
 10
573.0565402097164
 20
37.79765059025146
 30
0.0
 11
575.9887785705811
 21
35.66432076933177
 31
0.0
  0
LINE
  5
24D
330
242
100
AcDbEntity
  8
100
  6
Continuous
 62
     7
370
    30
100
AcDbLine
 10
575.9887785705811
 20
35.66432076933177
 30
0.0
 11
579.8057926434071
 21
34.82124046199158
 31
0.0
  0
LINE
  5
24E
330
242
100
AcDbEntity
  8
100
  6
Continuous
 62
     7
370
    30
100
AcDbLine
 10
579.8057926434071
 20
34.82124046199158
 30
0.0
 11
583.2853058502077
 21
34.56272680220576
 31
0.0
  0
LINE
  5
24F
330
242
100
AcDbEntity
  8
100
  6
Continuous
 62
     7
370
    30
100
AcDbLine
 10
583.2853058502077
 20
34.56272680220576
 30
0.0
 11
585.4027843238431
 21
35.92696650193596
 31
0.0
  0
LINE
  5
250
330
242
100
AcDbEntity
  8
100
  6
Continuous
 62
     7
370
    30
100
AcDbLine
 10
585.4027843238431
 20
35.92696650193596
 30
0.0
 11
588.7365196608064
 21
37.63912951932787
 31
0.0
  0
LINE
  5
251
330
242
100
AcDbEntity
  8
100
  6
Continuous
 62
     7
370
    30
100
AcDbLine
 10
588.7365196608064
 20
37.63912951932787
 30
0.0
 11
592.5304828637948
 21
38.55415648970472
 31
0.0
  0
LINE
  5
252
330
242
100
AcDbEntity
  8
100
  6
Continuous
 62
     7
370
    30
100
AcDbLine
 10
592.5304828637948
 20
38.55415648970472
 30
0.0
 11
595.2413392890666
 21
38.27699742910983
 31
0.0
  0
LINE
  5
253
330
242
100
AcDbEntity
  8
100
  6
Continuous
 62
     7
370
    30
100
AcDbLine
 10
595.2413392890666
 20
38.27699742910983
 30
0.0
 11
596.1842545719443
 21
36.76654825193225
 31
0.0
  0
LINE
  5
254
330
242
100
AcDbEntity
  8
100
  6
Continuous
 62
     7
370
    30
100
AcDbLine
 10
596.1842545719443
 20
36.76654825193225
 30
0.0
 11
598.3412258496613
 21
36.09874640845953
 31
0.0
  0
LINE
  5
255
330
242
100
AcDbEntity
  8
100
  6
Continuous
 62
     7
370
    30
100
AcDbLine
 10
598.3412258496613
 20
36.09874640845953
 30
0.0
 11
601.8514219224875
 21
35.78709046579604
 31
0.0
  0
LINE
  5
256
330
242
100
AcDbEntity
  8
100
  6
Continuous
 62
     7
370
    30
100
AcDbLine
 10
601.8514219224875
 20
35.78709046579604
 30
0.0
 11
603.9644931950438
 21
38.14077966171448
 31
0.0
  0
LINE
  5
257
330
242
100
AcDbEntity
  8
100
  6
Continuous
 62
     7
370
    30
100
AcDbLine
 10
603.9644931950438
 20
38.14077966171448
 30
0.0
 11
604.7730766203152
 21
41.15845408698567
 31
0.0
  0
LINE
  5
258
330
242
100
AcDbEntity
  8
100
  6
Continuous
 62
     7
370
    30
100
AcDbLine
 10
604.7730766203152
 20
41.15845408698567
 30
0.0
 11
605.1033780977626
 21
43.89999114623203
 31
0.0
  0
LINE
  5
259
330
242
100
AcDbEntity
  8
100
  6
Continuous
 62
     7
370
    30
100
AcDbLine
 10
605.1033780977626
 20
43.89999114623203
 30
0.0
 11
604.2234384624394
 21
46.65136330220582
 31
0.0
  0
LINE
  5
25A
330
242
100
AcDbEntity
  8
100
  6
Continuous
 62
     7
370
    30
100
AcDbLine
 10
604.2234384624394
 20
46.65136330220582
 30
0.0
 11
603.5013141621696
 21
48.14757327965287
 31
0.0
  0
LINE
  5
25B
330
242
100
AcDbEntity
  8
100
  6
Continuous
 62
     7
370
    30
100
AcDbLine
 10
603.5013141621696
 20
48.14757327965287
 30
0.0
 11
600.6332338548294
 21
47.83796209215404
 31
0.0
  0
LINE
  5
25C
330
242
100
AcDbEntity
  8
100
  6
Continuous
 62
     7
370
    30
100
AcDbLine
 10
600.6332338548294
 20
47.83796209215404
 30
0.0
 11
596.885804865151
 21
48.43779150003354
 31
0.0
  0
LINE
  5
25D
330
242
100
AcDbEntity
  8
100
  6
Continuous
 62
     7
370
    30
100
AcDbLine
 10
596.885804865151
 20
48.43779150003354
 30
0.0
 11
592.7088295094471
 21
49.78161503807576
 31
0.0
  0
LINE
  5
25E
330
242
100
AcDbEntity
  8
100
  6
Continuous
 62
     7
370
    30
100
AcDbLine
 10
592.7088295094471
 20
49.78161503807576
 30
0.0
 11
590.0834105146079
 21
51.38352012829392
 31
0.0
  0
LINE
  5
25F
330
242
100
AcDbEntity
  8
100
  6
Continuous
 62
     7
370
    30
100
AcDbLine
 10
590.0834105146079
 20
51.38352012829392
 30
0.0
 11
587.907204249122
 21
54.66190994786513
 31
0.0
  0
LINE
  5
260
330
242
100
AcDbEntity
  8
100
  6
Continuous
 62
     7
370
    30
100
AcDbLine
 10
587.907204249122
 20
54.66190994786513
 30
0.0
 11
586.5533888670534
 21
56.14769697367626
 31
0.0
  0
LINE
  5
261
330
242
100
AcDbEntity
  8
100
  6
Continuous
 62
     7
370
    30
100
AcDbLine
 10
586.5533888670534
 20
56.14769697367626
 30
0.0
 11
581.5463923637949
 21
57.57915931063957
 31
0.0
  0
LINE
  5
262
330
242
100
AcDbEntity
  8
100
  6
Continuous
 62
     7
370
    30
100
AcDbLine
 10
581.5463923637949
 20
57.57915931063957
 30
0.0
 11
576.6380497961296
 21
57.36702201878904
 31
0.0
  0
LINE
  5
263
330
242
100
AcDbEntity
  8
100
  6
Continuous
 62
     7
370
    30
100
AcDbLine
 10
576.6380497961296
 20
57.36702201878904
 30
0.0
 11
574.3529239887895
 21
56.04770401878875
 31
0.0
  0
LINE
  5
264
330
242
100
AcDbEntity
  8
100
  6
Continuous
 62
     7
370
    30
100
AcDbLine
 10
574.3529239887895
 20
56.04770401878875
 30
0.0
 11
561.7026550621619
 21
56.11315652911787
 31
0.0
  0
LINE
  5
265
330
242
100
AcDbEntity
  8
100
  6
Continuous
 62
     7
370
    30
100
AcDbLine
 10
561.7026550621619
 20
56.11315652911787
 30
0.0
 11
560.2589969146076
 21
57.26364578944288
 31
0.0
  0
LINE
  5
266
330
242
100
AcDbEntity
  8
100
  6
Continuous
 62
     7
370
    30
100
AcDbLine
 10
560.2589969146076
 20
57.26364578944288
 30
0.0
 11
559.6365496105255
 21
60.30539414514686
 31
0.0
  0
LINE
  5
267
330
242
100
AcDbEntity
  8
100
  6
Continuous
 62
     7
370
    30
100
AcDbLine
 10
559.6365496105255
 20
60.30539414514686
 30
0.0
 11
558.6316798746628
 21
63.76405958264957
 31
0.0
  0
LINE
  5
268
330
242
100
AcDbEntity
  8
100
  6
Continuous
 62
     7
370
    30
100
AcDbLine
 10
558.6316798746628
 20
63.76405958264957
 30
0.0
 11
557.5901105222173
 21
66.91811062069183
 31
0.0
  0
LINE
  5
269
330
242
100
AcDbEntity
  8
100
  6
Continuous
 62
     7
370
    30
100
AcDbLine
 10
557.5901105222173
 20
66.91811062069183
 30
0.0
 11
555.8127686227568
 21
69.50564909297816
 31
0.0
  0
LINE
  5
26A
330
242
100
AcDbEntity
  8
100
  6
Continuous
 62
     7
370
    30
100
AcDbLine
 10
555.8127686227568
 20
69.50564909297816
 30
0.0
 11
553.0975068624317
 21
70.77225641771054
 31
0.0
  0
LINE
  5
26B
330
242
100
AcDbEntity
  8
100
  6
Continuous
 62
     7
370
    30
100
AcDbLine
 10
553.0975068624317
 20
70.77225641771054
 30
0.0
 11
549.9675292548218
 21
71.16171866064343
 31
0.0
  0
LINE
  5
26C
330
242
100
AcDbEntity
  8
100
  6
Continuous
 62
     7
370
    30
100
AcDbLine
 10
549.9675292548218
 20
71.16171866064343
 30
0.0
 11
547.0627484648736
 21
70.54749257368383
 31
0.0
  0
LINE
  5
26D
330
242
100
AcDbEntity
  8
100
  6
Continuous
 62
     7
370
    30
100
AcDbLine
 10
547.0627484648736
 20
70.54749257368383
 30
0.0
 11
544.5119096091697
 21
69.07476507368403
 31
0.0
  0
LINE
  5
26E
330
242
100
AcDbEntity
  8
100
  6
Continuous
 62
     7
370
    30
100
AcDbLine
 10
544.5119096091697
 20
69.07476507368403
 30
0.0
 11
543.1877536665062
 21
67.31827044352156
 31
0.0
  0
LINE
  5
26F
330
242
100
AcDbEntity
  8
100
  6
Continuous
 62
     7
370
    30
100
AcDbLine
 10
543.1877536665062
 20
67.31827044352156
 30
0.0
 11
539.7117812135137
 21
56.52519533781384
 31
0.0
  0
LINE
  5
270
330
242
100
AcDbEntity
  8
100
  6
Continuous
 62
     7
370
    30
100
AcDbLine
 10
539.7117812135137
 20
56.52519533781384
 30
0.0
 11
539.6038838662291
 21
55.11662502531306
 31
0.0
  0
LINE
  5
271
330
242
100
AcDbEntity
  8
100
  6
Continuous
 62
     7
370
    30
100
AcDbLine
 10
539.6038838662291
 20
55.11662502531306
 30
0.0
 11
535.845007998294
 21
53.15900700792133
 31
0.0
  0
LINE
  5
272
330
242
100
AcDbEntity
  8
100
  6
Continuous
 62
     7
370
    30
100
AcDbLine
 10
535.845007998294
 20
53.15900700792133
 30
0.0
 11
534.0365511251982
 21
50.76861819542034
 31
0.0
  0
LINE
  5
273
330
242
100
AcDbEntity
  8
100
  6
Continuous
 62
     7
370
    30
100
AcDbLine
 10
534.0365511251982
 20
50.76861819542034
 30
0.0
 11
532.6921375001964
 21
48.43357490031104
 31
0.0
  0
LINE
  5
274
330
242
100
AcDbEntity
  8
100
  6
Continuous
 62
     7
370
    30
100
AcDbLine
 10
532.6921375001964
 20
48.43357490031104
 30
0.0
 11
530.358274745032
 21
46.09412577014876
 31
0.0
  0
LINE
  5
275
330
242
100
AcDbEntity
  8
100
  6
Continuous
 62
     7
370
    30
100
AcDbLine
 10
530.358274745032
 20
46.09412577014876
 30
0.0
 11
528.7607754898675
 21
42.47925764514673
 31
0.0
  0
LINE
  5
276
330
242
100
AcDbEntity
  8
100
  6
Continuous
 62
     7
370
    30
100
AcDbLine
 10
528.7607754898675
 20
42.47925764514673
 30
0.0
 11
527.1654789692174
 21
38.36966427205095
 31
0.0
  0
LINE
  5
277
330
242
100
AcDbEntity
  8
100
  6
Continuous
 62
     7
370
    30
100
AcDbLine
 10
527.1654789692174
 20
38.36966427205095
 30
0.0
 11
526.5497982140529
 21
33.05423662123815
 31
0.0
  0
LINE
  5
278
330
242
100
AcDbEntity
  8
100
  6
Continuous
 62
     7
370
    30
100
AcDbLine
 10
526.5497982140529
 20
33.05423662123815
 30
0.0
 11
526.2096633719287
 21
29.10245944922133
 31
0.0
  0
LINE
  5
279
330
242
100
AcDbEntity
  8
100
  6
Continuous
 62
     7
370
    30
100
AcDbLine
 10
526.2096633719287
 20
29.10245944922133
 30
0.0
 11
526.3199217991028
 21
23.14330425139349
 31
0.0
  0
LINE
  5
27A
330
242
100
AcDbEntity
  8
100
  6
Continuous
 62
     7
370
    30
100
AcDbLine
 10
526.3199217991028
 20
23.14330425139349
 30
0.0
 11
526.3517843390474
 21
19.40629871335102
 31
0.0
  0
LINE
  5
27B
330
242
100
AcDbEntity
  8
100
  6
Continuous
 62
     7
370
    30
100
AcDbLine
 10
526.3517843390474
 20
19.40629871335102
 30
0.0
 11
525.7639918963839
 21
16.37438508834919
 31
0.0
  0
LINE
  5
27C
330
242
100
AcDbEntity
  8
100
  6
Continuous
 62
     7
370
    30
100
AcDbLine
 10
525.7639918963839
 20
16.37438508834919
 30
0.0
 11
525.9749486482899
 21
15.14990527584848
 31
0.0
  0
ENDBLK
  5
244
330
242
100
AcDbEntity
  8
0
100
AcDbBlockEnd
  0
BLOCK
  5
27F
330
27E
100
AcDbEntity
  8
0
100
AcDbBlockBegin
  2
*G28
 70
     1
 10
0.0
 20
0.0
 30
0.0
  3
*G28
  1

  0
LINE
  5
281
330
27E
100
AcDbEntity
  8
100
  6
Continuous
 62
     7
370
    30
100
AcDbLine
 10
529.8358200298121
 20
36.93540788156326
 30
0.0
 11
540.5148209602517
 21
38.56610769596676
 31
0.0
  0
LINE
  5
282
330
27E
100
AcDbEntity
  8
100
  6
Continuous
 62
     7
370
    30
100
AcDbLine
 10
540.5148209602517
 20
38.56610769596676
 30
0.0
 11
553.5453074860701
 21
38.57846098590733
 31
0.0
  0
LINE
  5
283
330
27E
100
AcDbEntity
  8
100
  6
Continuous
 62
     7
370
    30
100
AcDbLine
 10
553.5453074860701
 20
38.57846098590733
 30
0.0
 11
564.5234961523726
 21
37.97277244079476
 31
0.0
  0
LINE
  5
284
330
27E
100
AcDbEntity
  8
100
  6
Continuous
 62
     7
370
    30
100
AcDbLine
 10
564.5234961523726
 20
37.97277244079476
 30
0.0
 11
567.2836796124279
 21
36.87381244976757
 31
0.0
  0
ENDBLK
  5
280
330
27E
100
AcDbEntity
  8
0
100
AcDbBlockEnd
  0
BLOCK
  5
287
330
286
100
AcDbEntity
  8
0
100
AcDbBlockBegin
  2
*G29
 70
     1
 10
0.0
 20
0.0
 30
0.0
  3
*G29
  1

  0
LINE
  5
289
330
286
100
AcDbEntity
  8
100
  6
Continuous
 62
     7
370
    30
100
AcDbLine
 10
572.0095433276477
 20
38.75201238536044
 30
0.0
 11
569.0488270673227
 21
40.44375937503935
 31
0.0
  0
LINE
  5
28A
330
286
100
AcDbEntity
  8
100
  6
Continuous
 62
     7
370
    30
100
AcDbLine
 10
569.0488270673227
 20
40.44375937503935
 30
0.0
 11
567.3755662670529
 21
43.58738609541967
 31
0.0
  0
LINE
  5
28B
330
286
100
AcDbEntity
  8
100
  6
Continuous
 62
     7
370
    30
100
AcDbLine
 10
567.3755662670529
 20
43.58738609541967
 30
0.0
 11
565.7801117670527
 21
46.35079435058412
 31
0.0
  0
LINE
  5
28C
330
286
100
AcDbEntity
  8
100
  6
Continuous
 62
     7
370
    30
100
AcDbLine
 10
565.7801117670527
 20
46.35079435058412
 30
0.0
 11
565.4031189629712
 21
48.96740304134153
 31
0.0
  0
ENDBLK
  5
288
330
286
100
AcDbEntity
  8
0
100
AcDbBlockEnd
  0
BLOCK
  5
28F
330
28E
100
AcDbEntity
  8
0
100
AcDbBlockBegin
  2
*G30
 70
     1
 10
0.0
 20
0.0
 30
0.0
  3
*G30
  1

  0
LINE
  5
291
330
28E
100
AcDbEntity
  8
100
  6
Continuous
 62
     7
370
    30
100
AcDbLine
 10
537.3183250852537
 20
48.76623695764778
 30
0.0
 11
546.9509200866097
 21
49.50936700656513
 31
0.0
  0
LINE
  5
292
330
28E
100
AcDbEntity
  8
100
  6
Continuous
 62
     7
370
    30
100
AcDbLine
 10
546.9509200866097
 20
49.50936700656513
 30
0.0
 11
558.812272317319
 21
48.84672029650608
 31
0.0
  0
LINE
  5
293
330
28E
100
AcDbEntity
  8
100
  6
Continuous
 62
     7
370
    30
100
AcDbLine
 10
558.812272317319
 20
48.84672029650608
 30
0.0
 11
562.4676558069975
 21
48.40631837123453
 31
0.0
  0
LINE
  5
294
330
28E
100
AcDbEntity
  8
100
  6
Continuous
 62
     7
370
    30
100
AcDbLine
 10
562.4676558069975
 20
48.40631837123453
 30
0.0
 11
563.8493603675923
 21
49.20404587123437
 31
0.0
  0
ENDBLK
  5
290
330
28E
100
AcDbEntity
  8
0
100
AcDbBlockEnd
  0
BLOCK
  5
297
330
296
100
AcDbEntity
  8
0
100
AcDbBlockBegin
  2
*G31
 70
     1
 10
0.0
 20
0.0
 30
0.0
  3
*G31
  1

  0
LINE
  5
299
330
296
100
AcDbEntity
  8
100
  6
Continuous
 62
     7
370
    30
100
AcDbLine
 10
573.0565402097164
 20
37.79765059025146
 30
0.0
 11
572.1026105222173
 21
41.78172327584838
 31
0.0
  0
LINE
  5
29A
330
296
100
AcDbEntity
  8
100
  6
Continuous
 62
     7
370
    30
100
AcDbLine
 10
572.1026105222173
 20
41.78172327584838
 30
0.0
 11
572.0685457477585
 21
46.01345319595913
 31
0.0
  0
LINE
  5
29B
330
296
100
AcDbEntity
  8
100
  6
Continuous
 62
     7
370
    30
100
AcDbLine
 10
572.0685457477585
 20
46.01345319595913
 30
0.0
 11
573.2814207026532
 21
50.53996415085373
 31
0.0
  0
LINE
  5
29C
330
296
100
AcDbEntity
  8
100
  6
Continuous
 62
     7
370
    30
100
AcDbLine
 10
573.2814207026532
 20
50.53996415085373
 30
0.0
 11
574.5765072928712
 21
53.69680837639532
 31
0.0
  0
LINE
  5
29D
330
296
100
AcDbEntity
  8
100
  6
Continuous
 62
     7
370
    30
100
AcDbLine
 10
574.5765072928712
 20
53.69680837639532
 30
0.0
 11
575.5220582838984
 21
56.72270401878893
 31
0.0
  0
ENDBLK
  5
298
330
296
100
AcDbEntity
  8
0
100
AcDbBlockEnd
  0
BLOCK
  5
2A0
330
29F
100
AcDbEntity
  8
0
100
AcDbBlockBegin
  2
*G32
 70
     1
 10
0.0
 20
0.0
 30
0.0
  3
*G32
  1

  0
LINE
  5
2A2
330
29F
100
AcDbEntity
  8
100
  6
Continuous
 62
     7
370
    30
100
AcDbLine
 10
576.9171648387769
 20
35.45926458376687
 30
0.0
 11
576.4285890428677
 21
41.16163668563047
 31
0.0
  0
LINE
  5
2A3
330
29F
100
AcDbEntity
  8
100
  6
Continuous
 62
     7
370
    30
100
AcDbLine
 10
576.4285890428677
 20
41.16163668563047
 30
0.0
 11
576.8930643985715
 21
46.24805177068754
 31
0.0
  0
LINE
  5
2A4
330
29F
100
AcDbEntity
  8
100
  6
Continuous
 62
     7
370
    30
100
AcDbLine
 10
576.8930643985715
 20
46.24805177068754
 30
0.0
 11
577.7092780879804
 21
50.97069019079834
 31
0.0
  0
LINE
  5
2A5
330
29F
100
AcDbEntity
  8
100
  6
Continuous
 62
     7
370
    30
100
AcDbLine
 10
577.7092780879804
 20
50.97069019079834
 30
0.0
 11
578.9714804436842
 21
54.67540158128617
 31
0.0
  0
LINE
  5
2A6
330
29F
100
AcDbEntity
  8
100
  6
Continuous
 62
     7
370
    30
100
AcDbLine
 10
578.9714804436842
 20
54.67540158128617
 30
0.0
 11
579.9582635386136
 21
57.51052112481813
 31
0.0
  0
ENDBLK
  5
2A1
330
29F
100
AcDbEntity
  8
0
100
AcDbBlockEnd
  0
BLOCK
  5
2A9
330
2A8
100
AcDbEntity
  8
0
100
AcDbBlockBegin
  2
*G33
 70
     1
 10
0.0
 20
0.0
 30
0.0
  3
*G33
  1

  0
LINE
  5
2AB
330
2A8
100
AcDbEntity
  8
100
  6
Continuous
 62
     7
370
    30
100
AcDbLine
 10
579.8057926434071
 20
34.82124046199158
 30
0.0
 11
579.2457301678694
 21
40.94584112503554
 31
0.0
  0
LINE
  5
2AC
330
2A8
100
AcDbEntity
  8
100
  6
Continuous
 62
     7
370
    30
100
AcDbLine
 10
579.2457301678694
 20
40.94584112503554
 30
0.0
 11
580.11890238825
 21
46.55164447557843
 31
0.0
  0
LINE
  5
2AD
330
2A8
100
AcDbEntity
  8
100
  6
Continuous
 62
     7
370
    30
100
AcDbLine
 10
580.11890238825
 20
46.55164447557843
 30
0.0
 11
580.9635962091701
 21
51.71586586090547
 31
0.0
  0
LINE
  5
2AE
330
2A8
100
AcDbEntity
  8
100
  6
Continuous
 62
     7
370
    30
100
AcDbLine
 10
580.9635962091701
 20
51.71586586090547
 30
0.0
 11
582.3036039991183
 21
55.04035828617714
 31
0.0
  0
LINE
  5
2AF
330
2A8
100
AcDbEntity
  8
100
  6
Continuous
 62
     7
370
    30
100
AcDbLine
 10
582.3036039991183
 20
55.04035828617714
 30
0.0
 11
583.6362326719617
 21
56.98168971718934
 31
0.0
  0
ENDBLK
  5
2AA
330
2A8
100
AcDbEntity
  8
0
100
AcDbBlockEnd
  0
BLOCK
  5
2B2
330
2B1
100
AcDbEntity
  8
0
100
AcDbBlockBegin
  2
*G34
 70
     1
 10
0.0
 20
0.0
 30
0.0
  3
*G34
  1

  0
LINE
  5
2B4
330
2B1
100
AcDbEntity
  8
100
  6
Continuous
 62
     7
370
    30
100
AcDbLine
 10
584.3289208238431
 20
37.78695264432974
 30
0.0
 11
583.0928361537358
 21
41.89155009541253
 31
0.0
  0
LINE
  5
2B5
330
2B1
100
AcDbEntity
  8
100
  6
Continuous
 62
     7
370
    30
100
AcDbLine
 10
583.0928361537358
 20
41.89155009541253
 30
0.0
 11
583.2264200790074
 21
46.07835794976756
 31
0.0
  0
LINE
  5
2B6
330
2B1
100
AcDbEntity
  8
100
  6
Continuous
 62
     7
370
    30
100
AcDbLine
 10
583.2264200790074
 20
46.07835794976756
 30
0.0
 11
584.2640152040094
 21
48.94482647557862
 31
0.0
  0
LINE
  5
2B7
330
2B1
100
AcDbEntity
  8
100
  6
Continuous
 62
     7
370
    30
100
AcDbLine
 10
584.2640152040094
 20
48.94482647557862
 30
0.0
 11
585.9722049939576
 21
51.63160897041763
 31
0.0
  0
LINE
  5
2B8
330
2B1
100
AcDbEntity
  8
100
  6
Continuous
 62
     7
370
    30
100
AcDbLine
 10
585.9722049939576
 20
51.63160897041763
 30
0.0
 11
586.9736910893363
 21
52.35153017014807
 31
0.0
  0
ENDBLK
  5
2B3
330
2B1
100
AcDbEntity
  8
0
100
AcDbBlockEnd
  0
BLOCK
  5
2BB
330
2BA
100
AcDbEntity
  8
0
100
AcDbBlockBegin
  2
*G35
 70
     1
 10
0.0
 20
0.0
 30
0.0
  3
*G35
  1

  0
LINE
  5
2BD
330
2BA
100
AcDbEntity
  8
100
  6
Continuous
 62
     7
370
    30
100
AcDbLine
 10
601.8514219224875
 20
35.78709046579604
 30
0.0
 11
600.8164606396097
 21
37.45696799160703
 31
0.0
  0
LINE
  5
2BE
330
2BA
100
AcDbEntity
  8
100
  6
Continuous
 62
     7
370
    30
100
AcDbLine
 10
600.8164606396097
 20
37.45696799160703
 30
0.0
 11
600.2351187871641
 21
39.81388161660914
 31
0.0
  0
LINE
  5
2BF
330
2BA
100
AcDbEntity
  8
100
  6
Continuous
 62
     7
370
    30
100
AcDbLine
 10
600.2351187871641
 20
39.81388161660914
 30
0.0
 11
600.6821287820034
 21
41.98509159405637
 31
0.0
  0
LINE
  5
2C0
330
2BA
100
AcDbEntity
  8
100
  6
Continuous
 62
     7
370
    30
100
AcDbLine
 10
600.6821287820034
 20
41.98509159405637
 30
0.0
 11
601.1373603599902
 21
44.01933537177354
 31
0.0
  0
LINE
  5
2C1
330
2BA
100
AcDbEntity
  8
100
  6
Continuous
 62
     7
370
    30
100
AcDbLine
 10
601.1373603599902
 20
44.01933537177354
 30
0.0
 11
601.678618955369
 21
45.53639398454413
 31
0.0
  0
LINE
  5
2C2
330
2BA
100
AcDbEntity
  8
100
  6
Continuous
 62
     7
370
    30
100
AcDbLine
 10
601.678618955369
 20
45.53639398454413
 30
0.0
 11
602.602298750478
 21
46.63653364949033
 31
0.0
  0
LINE
  5
2C3
330
2BA
100
AcDbEntity
  8
100
  6
Continuous
 62
     7
370
    30
100
AcDbLine
 10
602.602298750478
 20
46.63653364949033
 30
0.0
 11
603.5013141621696
 21
48.14757327965287
 31
0.0
  0
ENDBLK
  5
2BC
330
2BA
100
AcDbEntity
  8
0
100
AcDbBlockEnd
  0
BLOCK
  5
2C6
330
2C5
100
AcDbEntity
  8
0
100
AcDbBlockBegin
  2
*G36
 70
     1
 10
0.0
 20
0.0
 30
0.0
  3
*G36
  1

  0
LINE
  5
2C8
330
2C5
100
AcDbEntity
  8
100
  6
Continuous
 62
     7
370
    30
100
AcDbLine
 10
602.5334620996651
 20
38.16485222612124
 30
0.0
 11
602.0934922820032
 21
39.54053830410783
 31
0.0
  0
LINE
  5
2C9
330
2C5
100
AcDbEntity
  8
100
  6
Continuous
 62
     7
370
    30
100
AcDbLine
 10
602.0934922820032
 20
39.54053830410783
 30
0.0
 11
602.0112810127054
 21
40.91020639948687
 31
0.0
  0
LINE
  5
2CA
330
2C5
100
AcDbEntity
  8
100
  6
Continuous
 62
     7
370
    30
100
AcDbLine
 10
602.0112810127054
 20
40.91020639948687
 30
0.0
 11
602.2786058425982
 21
42.41082221198764
 31
0.0
  0
LINE
  5
2CB
330
2C5
100
AcDbEntity
  8
100
  6
Continuous
 62
     7
370
    30
100
AcDbLine
 10
602.2786058425982
 20
42.41082221198764
 30
0.0
 11
602.8198635719517
 21
43.92788032475835
 31
0.0
  0
LINE
  5
2CC
330
2C5
100
AcDbEntity
  8
100
  6
Continuous
 62
     7
370
    30
100
AcDbLine
 10
602.8198635719517
 20
43.92788032475835
 30
0.0
 11
603.349085702114
 21
44.72942270682677
 31
0.0
  0
LINE
  5
2CD
330
2C5
100
AcDbEntity
  8
100
  6
Continuous
 62
     7
370
    30
100
AcDbLine
 10
603.349085702114
 20
44.72942270682677
 30
0.0
 11
603.9747586673303
 21
44.38208934215015
 31
0.0
  0
LINE
  5
2CE
330
2C5
100
AcDbEntity
  8
100
  6
Continuous
 62
     7
370
    30
100
AcDbLine
 10
603.9747586673303
 20
44.38208934215015
 30
0.0
 11
604.255301002384
 21
42.91435776416336
 31
0.0
  0
LINE
  5
2CF
330
2C5
100
AcDbEntity
  8
100
  6
Continuous
 62
     7
370
    30
100
AcDbLine
 10
604.255301002384
 20
42.91435776416336
 30
0.0
 11
604.2619090719517
 21
41.43018425193247
 31
0.0
  0
LINE
  5
2D0
330
2C5
100
AcDbEntity
  8
100
  6
Continuous
 62
     7
370
    30
100
AcDbLine
 10
604.2619090719517
 20
41.43018425193247
 30
0.0
 11
603.7891342594506
 21
39.91723624772283
 31
0.0
  0
LINE
  5
2D1
330
2C5
100
AcDbEntity
  8
100
  6
Continuous
 62
     7
370
    30
100
AcDbLine
 10
603.7891342594506
 20
39.91723624772283
 30
0.0
 11
603.5461785864826
 21
38.92668581729038
 31
0.0
  0
LINE
  5
2D2
330
2C5
100
AcDbEntity
  8
100
  6
Continuous
 62
     7
370
    30
100
AcDbLine
 10
603.5461785864826
 20
38.92668581729038
 30
0.0
 11
603.0424260474894
 21
38.38784680926886
 31
0.0
  0
LINE
  5
2D3
330
2C5
100
AcDbEntity
  8
100
  6
Continuous
 62
     7
370
    30
100
AcDbLine
 10
603.0424260474894
 20
38.38784680926886
 30
0.0
 11
602.5334620996651
 21
38.16485222612124
 31
0.0
  0
ENDBLK
  5
2C7
330
2C5
100
AcDbEntity
  8
0
100
AcDbBlockEnd
  0
BLOCK
  5
2D6
330
2D5
100
AcDbEntity
  8
0
100
AcDbBlockBegin
  2
*G37
 70
     1
 10
0.0
 20
0.0
 30
0.0
  3
*G37
  1

  0
LINE
  5
2D8
330
2D5
100
AcDbEntity
  8
100
  6
Continuous
 62
     7
370
    30
100
AcDbLine
 10
595.4207292275205
 20
39.86855694134084
 30
0.0
 11
595.1971454234387
 21
42.21945344976012
 31
0.0
  0
LINE
  5
2D9
330
2D5
100
AcDbEntity
  8
100
  6
Continuous
 62
     7
370
    30
100
AcDbLine
 10
595.1971454234387
 20
42.21945344976012
 30
0.0
 11
595.4113274704536
 21
43.68938726226128
 31
0.0
  0
LINE
  5
2DA
330
2D5
100
AcDbEntity
  8
100
  6
Continuous
 62
     7
370
    30
100
AcDbLine
 10
595.4113274704536
 20
43.68938726226128
 30
0.0
 11
596.2736437655627
 21
44.89581162693764
 31
0.0
  0
LINE
  5
2DB
330
2D5
100
AcDbEntity
  8
100
  6
Continuous
 62
     7
370
    30
100
AcDbLine
 10
596.2736437655627
 20
44.89581162693764
 30
0.0
 11
596.8702473783331
 21
45.94882785763997
 31
0.0
  0
ENDBLK
  5
2D7
330
2D5
100
AcDbEntity
  8
0
100
AcDbBlockEnd
  0
BLOCK
  5
2DE
330
2DD
100
AcDbEntity
  8
0
100
AcDbBlockBegin
  2
*G38
 70
     1
 10
0.0
 20
0.0
 30
0.0
  3
*G38
  1

  0
LINE
  5
2E0
330
2DD
100
AcDbEntity
  8
100
  6
Continuous
 62
     7
370
    30
100
AcDbLine
 10
545.1436226552262
 20
56.26015198210996
 30
0.0
 11
555.4857140386508
 21
56.63348824949833
 31
0.0
  0
LINE
  5
2E1
330
2DD
100
AcDbEntity
  8
100
  6
Continuous
 62
     7
370
    30
100
AcDbLine
 10
555.4857140386508
 20
56.63348824949833
 30
0.0
 11
555.7634631862053
 21
57.50241261417517
 31
0.0
  0
LINE
  5
2E2
330
2DD
100
AcDbEntity
  8
100
  6
Continuous
 62
     7
370
    30
100
AcDbLine
 10
555.7634631862053
 20
57.50241261417517
 30
0.0
 11
554.9629424987062
 21
61.22077311743334
 31
0.0
  0
LINE
  5
2E3
330
2DD
100
AcDbEntity
  8
100
  6
Continuous
 62
     7
370
    30
100
AcDbLine
 10
554.9629424987062
 20
61.22077311743334
 30
0.0
 11
553.8824695631131
 21
64.56493313808357
 31
0.0
  0
LINE
  5
2E4
330
2DD
100
AcDbEntity
  8
100
  6
Continuous
 62
     7
370
    30
100
AcDbLine
 10
553.8824695631131
 20
64.56493313808357
 30
0.0
 11
552.7779240631131
 21
66.47806206335542
 31
0.0
  0
LINE
  5
2E5
330
2DD
100
AcDbEntity
  8
100
  6
Continuous
 62
     7
370
    30
100
AcDbLine
 10
552.7779240631131
 20
66.47806206335542
 30
0.0
 11
550.9787118337598
 21
67.13984505819457
 31
0.0
  0
LINE
  5
2E6
330
2DD
100
AcDbEntity
  8
100
  6
Continuous
 62
     7
370
    30
100
AcDbLine
 10
550.9787118337598
 20
67.13984505819457
 30
0.0
 11
549.6172649555032
 21
66.92066622314076
 31
0.0
  0
LINE
  5
2E7
330
2DD
100
AcDbEntity
  8
100
  6
Continuous
 62
     7
370
    30
100
AcDbLine
 10
549.6172649555032
 20
66.92066622314076
 30
0.0
 11
547.4466454310409
 21
65.52574552341088
 31
0.0
  0
LINE
  5
2E8
330
2DD
100
AcDbEntity
  8
100
  6
Continuous
 62
     7
370
    30
100
AcDbLine
 10
547.4466454310409
 20
65.52574552341088
 30
0.0
 11
546.3717593704461
 21
64.19659279270843
 31
0.0
  0
LINE
  5
2E9
330
2DD
100
AcDbEntity
  8
100
  6
Continuous
 62
     7
370
    30
100
AcDbLine
 10
546.3717593704461
 20
64.19659279270843
 30
0.0
 11
544.8735046378342
 21
57.09619211227243
 31
0.0
  0
LINE
  5
2EA
330
2DD
100
AcDbEntity
  8
100
  6
Continuous
 62
     7
370
    30
100
AcDbLine
 10
544.8735046378342
 20
57.09619211227243
 30
0.0
 11
544.7162793897403
 21
56.50942223020394
 31
0.0
  0
LINE
  5
2EB
330
2DD
100
AcDbEntity
  8
100
  6
Continuous
 62
     7
370
    30
100
AcDbLine
 10
544.7162793897403
 20
56.50942223020394
 30
0.0
 11
545.1436226552262
 21
56.26015198210996
 31
0.0
  0
ENDBLK
  5
2DF
330
2DD
100
AcDbEntity
  8
0
100
AcDbBlockEnd
  0
ENDSEC
  0
SECTION
  2
ENTITIES
  0
TEXT
  5
99
330
1F
100
AcDbEntity
  8
100
  6
Continuous
 62
     7
370
     9
100
AcDbText
 10
7.89140738286418
 20
-306.8457283371789
 30
0.0
 40
25.0
  1
松本船舶電機製作所
100
AcDbText
  0
LINE
  5
BC
330
1F
100
AcDbEntity
  8
101
  6
Continuous
 62
     7
370
    30
100
AcDbLine
 10
117.6931205808337
 20
22.3191624365482
 30
0.0
 11
117.6264962153515
 21
20.85342639593904
 31
0.0
  0
LINE
  5
BD
330
1F
100
AcDbEntity
  8
101
  6
Continuous
 62
     7
370
    30
100
AcDbLine
 10
117.6264962153515
 20
20.85342639593904
 30
0.0
 11
115.9275748955545
 21
19.32106598984768
 31
0.0
  0
LINE
  5
BE
330
1F
100
AcDbEntity
  8
101
  6
Continuous
 62
     7
370
    30
100
AcDbLine
 10
115.9275748955545
 20
19.32106598984768
 30
0.0
 11
113.3958490072297
 21
18.18845177664974
 31
0.0
  0
LINE
  5
BF
330
1F
100
AcDbEntity
  8
101
  6
Continuous
 62
     7
370
    30
100
AcDbLine
 10
113.3958490072297
 20
18.18845177664974
 30
0.0
 11
112.2632347940317
 21
16.48953045685278
 31
0.0
  0
LINE
  5
C0
330
1F
100
AcDbEntity
  8
101
  6
Continuous
 62
     7
370
    30
100
AcDbLine
 10
112.2632347940317
 20
16.48953045685278
 30
0.0
 11
112.4297957077373
 21
15.65672588832484
 31
0.0
  0
LINE
  5
C1
330
1F
100
AcDbEntity
  8
101
  6
Continuous
 62
     7
370
    30
100
AcDbLine
 10
112.4297957077373
 20
15.65672588832484
 30
0.0
 11
111.8301764183971
 21
14.6240482233502
 31
0.0
  0
LINE
  5
C2
330
1F
100
AcDbEntity
  8
101
  6
Continuous
 62
     7
370
    30
100
AcDbLine
 10
111.8301764183971
 20
14.6240482233502
 30
0.0
 11
111.8301764183971
 21
13.1583121827411
 31
0.0
  0
LINE
  5
C3
330
1F
100
AcDbEntity
  8
101
  6
Continuous
 62
     7
370
    30
100
AcDbLine
 10
111.8301764183971
 20
13.1583121827411
 30
0.0
 11
111.8968007838794
 21
12.32550761421317
 31
0.0
  0
LINE
  5
C4
330
1F
100
AcDbEntity
  8
101
  6
Continuous
 62
     7
370
    30
100
AcDbLine
 10
111.8968007838794
 20
12.32550761421317
 30
0.0
 11
111.8301764183971
 21
10.85977157360401
 31
0.0
  0
LINE
  5
C5
330
1F
100
AcDbEntity
  8
101
  6
Continuous
 62
     7
370
    30
100
AcDbLine
 10
111.8301764183971
 20
10.85977157360401
 30
0.0
 11
112.0300495148439
 21
9.760469543147167
 31
0.0
  0
LINE
  5
C6
330
1F
100
AcDbEntity
  8
101
  6
Continuous
 62
     7
370
    30
100
AcDbLine
 10
112.0300495148439
 20
9.760469543147167
 30
0.0
 11
112.2965469767728
 21
9.260786802030395
 31
0.0
  0
LINE
  5
C7
330
1F
100
AcDbEntity
  8
101
  6
Continuous
 62
     7
370
    30
100
AcDbLine
 10
112.2965469767728
 20
9.260786802030395
 30
0.0
 11
111.8634886011383
 21
7.861675126903492
 31
0.0
  0
LINE
  5
C8
330
1F
100
AcDbEntity
  8
101
  6
Continuous
 62
     7
370
    30
100
AcDbLine
 10
111.8634886011383
 20
7.861675126903492
 30
0.0
 11
111.9634251493617
 21
6.629124365482141
 31
0.0
  0
LINE
  5
C9
330
1F
100
AcDbEntity
  8
101
  6
Continuous
 62
     7
370
    30
100
AcDbLine
 10
111.9634251493617
 20
6.629124365482141
 30
0.0
 11
112.2632347940317
 21
5.962880710659817
 31
0.0
  0
LINE
  5
CA
330
1F
100
AcDbEntity
  8
101
  6
Continuous
 62
     7
370
    30
100
AcDbLine
 10
112.2632347940317
 20
5.962880710659817
 30
0.0
 11
111.8968007838794
 21
4.330583756345106
 31
0.0
  0
LINE
  5
CB
330
1F
100
AcDbEntity
  8
101
  6
Continuous
 62
     7
370
    30
100
AcDbLine
 10
111.8968007838794
 20
4.330583756345106
 30
0.0
 11
112.1299860630672
 21
3.064720812182657
 31
0.0
  0
LINE
  5
CC
330
1F
100
AcDbEntity
  8
101
  6
Continuous
 62
     7
370
    30
100
AcDbLine
 10
112.1299860630672
 20
3.064720812182657
 30
0.0
 11
111.9967373321028
 21
0.9993654822334861
 31
0.0
  0
LINE
  5
CD
330
1F
100
AcDbEntity
  8
101
  6
Continuous
 62
     7
370
    30
100
AcDbLine
 10
111.9967373321028
 20
0.9993654822334861
 30
0.0
 11
111.9967373321028
 21
0.7328680203044655
 31
0.0
  0
LINE
  5
CE
330
1F
100
AcDbEntity
  8
101
  6
Continuous
 62
     7
370
    30
100
AcDbLine
 10
111.9967373321028
 20
0.7328680203044655
 30
0.0
 11
109.498323626519
 21
-0.1332487309645671
 31
0.0
  0
LINE
  5
CF
330
1F
100
AcDbEntity
  8
101
  6
Continuous
 62
     7
370
    30
100
AcDbLine
 10
109.498323626519
 20
-0.1332487309645671
 30
0.0
 11
107.8327144894631
 21
-1.132614213198053
 31
0.0
  0
LINE
  5
D0
330
1F
100
AcDbEntity
  8
101
  6
Continuous
 62
     7
370
    30
100
AcDbLine
 10
107.8327144894631
 20
-1.132614213198053
 30
0.0
 11
106.4002906315951
 21
-2.698286802030566
 31
0.0
  0
LINE
  5
D1
330
1F
100
AcDbEntity
  8
101
  6
Continuous
 62
     7
370
    30
100
AcDbLine
 10
106.4002906315951
 20
-2.698286802030566
 30
0.0
 11
106.366978448854
 21
-10.59327411167527
 31
0.0
  0
LINE
  5
D2
330
1F
100
AcDbEntity
  8
101
  6
Continuous
 62
     7
370
    30
100
AcDbLine
 10
106.366978448854
 20
-10.59327411167527
 30
0.0
 11
106.1337931696662
 21
-21.91941624365501
 31
0.0
  0
LINE
  5
D3
330
1F
100
AcDbEntity
  8
101
  6
Continuous
 62
     7
370
    30
100
AcDbLine
 10
106.1337931696662
 20
-21.91941624365501
 30
0.0
 11
106.2670419006306
 21
-23.51840101522862
 31
0.0
  0
LINE
  5
D4
330
1F
100
AcDbEntity
  8
101
  6
Continuous
 62
     7
370
    30
100
AcDbLine
 10
106.2670419006306
 20
-23.51840101522862
 30
0.0
 11
106.6334759107829
 21
-24.48445431472101
 31
0.0
  0
LINE
  5
D5
330
1F
100
AcDbEntity
  8
101
  6
Continuous
 62
     7
370
    30
100
AcDbLine
 10
106.933285555453
 20
-22.31916243654842
 30
0.0
 11
106.6334759107829
 21
-24.48445431472101
 31
0.0
  0
LINE
  5
D6
330
1F
100
AcDbEntity
  8
101
  6
Continuous
 62
     7
370
    30
100
AcDbLine
 10
106.6334759107829
 20
-24.48445431472101
 30
0.0
 11
106.1337931696662
 21
-26.18337563451797
 31
0.0
  0
LINE
  5
D7
330
1F
100
AcDbEntity
  8
101
  6
Continuous
 62
     7
370
    30
100
AcDbLine
 10
106.1337931696662
 20
-26.18337563451797
 30
0.0
 11
104.8013058600215
 21
-27.88229695431488
 31
0.0
  0
LINE
  5
D8
330
1F
100
AcDbEntity
  8
101
  6
Continuous
 62
     7
370
    30
100
AcDbLine
 10
104.8013058600215
 20
-27.88229695431488
 30
0.0
 11
102.4361408854022
 21
-30.08090101522862
 31
0.0
  0
LINE
  5
D9
330
1F
100
AcDbEntity
  8
101
  6
Continuous
 62
     7
370
    30
100
AcDbLine
 10
102.4361408854022
 20
-30.08090101522862
 30
0.0
 11
98.33874240824483
 21
-32.41275380710675
 31
0.0
  0
LINE
  5
DA
330
1F
100
AcDbEntity
  8
101
  6
Continuous
 62
     7
370
    30
100
AcDbLine
 10
98.33874240824483
 20
-32.41275380710675
 30
0.0
 11
93.6417246417474
 21
-35.34422588832507
 31
0.0
  0
LINE
  5
DB
330
1F
100
AcDbEntity
  8
101
  6
Continuous
 62
     7
370
    30
100
AcDbLine
 10
93.6417246417474
 20
-35.34422588832507
 30
0.0
 11
89.74419926103675
 21
-37.90926395939107
 31
0.0
  0
LINE
  5
DC
330
1F
100
AcDbEntity
  8
101
  6
Continuous
 62
     7
370
    30
100
AcDbLine
 10
89.74419926103675
 20
-37.90926395939107
 30
0.0
 11
84.41425002245805
 21
-42.97271573604081
 31
0.0
  0
LINE
  5
DD
330
1F
100
AcDbEntity
  8
101
  6
Continuous
 62
     7
370
    30
100
AcDbLine
 10
84.41425002245805
 20
-42.97271573604081
 30
0.0
 11
78.95105205291489
 21
-49.56852791878191
 31
0.0
  0
LINE
  5
DE
330
1F
100
AcDbEntity
  8
101
  6
Continuous
 62
     7
370
    30
100
AcDbLine
 10
78.95105205291489
 20
-49.56852791878191
 30
0.0
 11
75.02021448946314
 21
-56.43083756345192
 31
0.0
  0
LINE
  5
DF
330
1F
100
AcDbEntity
  8
101
  6
Continuous
 62
     7
370
    30
100
AcDbLine
 10
75.02021448946314
 20
-56.43083756345192
 30
0.0
 11
72.5551129666205
 21
-62.16053299492404
 31
0.0
  0
LINE
  5
E0
330
1F
100
AcDbEntity
  8
101
  6
Continuous
 62
     7
370
    30
100
AcDbLine
 10
72.5551129666205
 20
-62.16053299492404
 30
0.0
 11
70.62300636763572
 21
-72.15418781725907
 31
0.0
  0
LINE
  5
E1
330
1F
100
AcDbEntity
  8
101
  6
Continuous
 62
     7
370
    30
100
AcDbLine
 10
70.62300636763572
 20
-72.15418781725907
 30
0.0
 11
69.35714342347333
 21
-81.0152284263961
 31
0.0
  0
LINE
  5
E2
330
1F
100
AcDbEntity
  8
101
  6
Continuous
 62
     7
370
    30
100
AcDbLine
 10
69.35714342347333
 20
-81.0152284263961
 30
0.0
 11
69.35714342347333
 21
-90.40926395939101
 31
0.0
  0
LINE
  5
E3
330
1F
100
AcDbEntity
  8
101
  6
Continuous
 62
     7
370
    30
100
AcDbLine
 10
69.35714342347333
 20
-90.40926395939101
 30
0.0
 11
69.35714342347333
 21
-101.3356598984773
 31
0.0
  0
LINE
  5
E4
330
1F
100
AcDbEntity
  8
101
  6
Continuous
 62
     7
370
    30
100
AcDbLine
 10
69.35714342347333
 20
-101.3356598984773
 30
0.0
 11
70.55638200215347
 21
-113.9942893401017
 31
0.0
  0
LINE
  5
E5
330
1F
100
AcDbEntity
  8
101
  6
Continuous
 62
     7
370
    30
100
AcDbLine
 10
70.55638200215347
 20
-113.9942893401017
 30
0.0
 11
74.55384393108747
 21
-137.0463197969545
 31
0.0
  0
LINE
  5
E6
330
1F
100
AcDbEntity
  8
101
  6
Continuous
 62
     7
370
    30
100
AcDbLine
 10
74.55384393108747
 20
-137.0463197969545
 30
0.0
 11
77.08556981941237
 21
-149.171954314721
 31
0.0
  0
LINE
  5
E7
330
1F
100
AcDbEntity
  8
101
  6
Continuous
 62
     7
370
    30
100
AcDbLine
 10
77.08556981941237
 20
-149.171954314721
 30
0.0
 11
82.28227032702657
 21
-163.16307106599
 31
0.0
  0
LINE
  5
E8
330
1F
100
AcDbEntity
  8
101
  6
Continuous
 62
     7
370
    30
100
AcDbLine
 10
82.28227032702657
 20
-163.16307106599
 30
0.0
 11
89.07795560621437
 21
-172.7569796954317
 31
0.0
  0
LINE
  5
E9
330
1F
100
AcDbEntity
  8
101
  6
Continuous
 62
     7
370
    30
100
AcDbLine
 10
89.07795560621437
 20
-172.7569796954317
 30
0.0
 11
97.20612819504689
 21
-179.6859137055839
 31
0.0
  0
LINE
  5
EA
330
1F
100
AcDbEntity
  8
101
  6
Continuous
 62
     7
370
    30
100
AcDbLine
 10
97.20612819504689
 20
-179.6859137055839
 30
0.0
 11
108.665519057991
 21
-184.3496192893403
 31
0.0
  0
LINE
  5
EB
330
1F
100
AcDbEntity
  8
101
  6
Continuous
 62
     7
370
    30
100
AcDbLine
 10
108.665519057991
 20
-184.3496192893403
 30
0.0
 11
120.3914073828642
 21
-185.9486040609137
 31
0.0
  0
LINE
  5
EC
330
1F
100
AcDbEntity
  8
101
  6
Continuous
 62
     7
370
    30
100
AcDbLine
 10
120.3914073828642
 20
-185.9486040609137
 30
0.0
 11
134.3825241341332
 21
-183.9498730964469
 31
0.0
  0
LINE
  5
ED
330
1F
100
AcDbEntity
  8
101
  6
Continuous
 62
     7
370
    30
100
AcDbLine
 10
134.3825241341332
 20
-183.9498730964469
 30
0.0
 11
144.5094276874327
 21
-177.420685279188
 31
0.0
  0
LINE
  5
EE
330
1F
100
AcDbEntity
  8
101
  6
Continuous
 62
     7
370
    30
100
AcDbLine
 10
144.5094276874327
 20
-177.420685279188
 30
0.0
 11
151.9713566214428
 21
-170.4917512690357
 31
0.0
  0
LINE
  5
EF
330
1F
100
AcDbEntity
  8
101
  6
Continuous
 62
     7
370
    30
100
AcDbLine
 10
151.9713566214428
 20
-170.4917512690357
 30
0.0
 11
158.9002906315951
 21
-161.2975888324875
 31
0.0
  0
LINE
  5
F0
330
1F
100
AcDbEntity
  8
101
  6
Continuous
 62
     7
370
    30
100
AcDbLine
 10
158.9002906315951
 20
-161.2975888324875
 30
0.0
 11
163.6972449463159
 21
-145.9739847715738
 31
0.0
  0
LINE
  5
F1
330
1F
100
AcDbEntity
  8
101
  6
Continuous
 62
     7
370
    30
100
AcDbLine
 10
163.6972449463159
 20
-145.9739847715738
 30
0.0
 11
166.0957221036763
 21
-136.3800761421322
 31
0.0
  0
LINE
  5
F2
330
1F
100
AcDbEntity
  8
101
  6
Continuous
 62
     7
370
    30
100
AcDbLine
 10
166.0957221036763
 20
-136.3800761421322
 30
0.0
 11
169.0271941848946
 21
-117.0590101522844
 31
0.0
  0
LINE
  5
F3
330
1F
100
AcDbEntity
  8
101
  6
Continuous
 62
     7
370
    30
100
AcDbLine
 10
169.0271941848946
 20
-117.0590101522844
 30
0.0
 11
170.2264327635748
 21
-107.8648477157362
 31
0.0
  0
LINE
  5
F4
330
1F
100
AcDbEntity
  8
101
  6
Continuous
 62
     7
370
    30
100
AcDbLine
 10
170.2264327635748
 20
-107.8648477157362
 30
0.0
 11
170.6261789564682
 21
-100.0031725888327
 31
0.0
  0
LINE
  5
F5
330
1F
100
AcDbEntity
  8
101
  6
Continuous
 62
     7
370
    30
100
AcDbLine
 10
170.6261789564682
 20
-100.0031725888327
 30
0.0
 11
171.692168804184
 21
-84.01332487309662
 31
0.0
  0
LINE
  5
F6
330
1F
100
AcDbEntity
  8
101
  6
Continuous
 62
     7
370
    30
100
AcDbLine
 10
171.692168804184
 20
-84.01332487309662
 30
0.0
 11
171.692168804184
 21
-71.35469543147224
 31
0.0
  0
LINE
  5
F7
330
1F
100
AcDbEntity
  8
101
  6
Continuous
 62
     7
370
    30
100
AcDbLine
 10
171.692168804184
 20
-71.35469543147224
 30
0.0
 11
168.2277017991078
 21
-59.8953045685281
 31
0.0
  0
LINE
  5
F8
330
1F
100
AcDbEntity
  8
101
  6
Continuous
 62
     7
370
    30
100
AcDbLine
 10
168.2277017991078
 20
-59.8953045685281
 30
0.0
 11
162.0982601747423
 21
-48.56916243654842
 31
0.0
  0
LINE
  5
F9
330
1F
100
AcDbEntity
  8
101
  6
Continuous
 62
     7
370
    30
100
AcDbLine
 10
162.0982601747423
 20
-48.56916243654842
 30
0.0
 11
153.0373464691586
 21
-38.70875634517785
 31
0.0
  0
LINE
  5
FA
330
1F
100
AcDbEntity
  8
101
  6
Continuous
 62
     7
370
    30
100
AcDbLine
 10
153.0373464691586
 20
-38.70875634517785
 30
0.0
 11
144.5094276874327
 21
-33.11230964467023
 31
0.0
  0
LINE
  5
FB
330
1F
100
AcDbEntity
  8
101
  6
Continuous
 62
     7
370
    30
100
AcDbLine
 10
144.5094276874327
 20
-33.11230964467023
 30
0.0
 11
138.7797322559606
 21
-29.6478426395941
 31
0.0
  0
LINE
  5
FC
330
1F
100
AcDbEntity
  8
101
  6
Continuous
 62
     7
370
    30
100
AcDbLine
 10
138.7797322559606
 20
-29.6478426395941
 30
0.0
 11
137.0474987534225
 21
-26.98286802030475
 31
0.0
  0
LINE
  5
FD
330
1F
100
AcDbEntity
  8
101
  6
Continuous
 62
     7
370
    30
100
AcDbLine
 10
137.0474987534225
 20
-26.98286802030475
 30
0.0
 11
135.8149479920012
 21
-24.3178934010154
 31
0.0
  0
LINE
  5
FE
330
1F
100
AcDbEntity
  8
101
  6
Continuous
 62
     7
370
    30
100
AcDbLine
 10
135.8149479920012
 20
-24.3178934010154
 30
0.0
 11
135.5151383473311
 21
-22.08597715736056
 31
0.0
  0
LINE
  5
FF
330
1F
100
AcDbEntity
  8
101
  6
Continuous
 62
     7
370
    30
100
AcDbLine
 10
135.7742079943338
 20
-24.01460675171353
 30
0.0
 11
136.4478794640824
 21
-23.18527918781746
 31
0.0
  0
LINE
  5
100
330
1F
100
AcDbEntity
  8
101
  6
Continuous
 62
     7
370
    30
100
AcDbLine
 10
136.4478794640824
 20
-23.18527918781746
 30
0.0
 11
136.614440377788
 21
-21.91941624365501
 31
0.0
  0
LINE
  5
101
330
1F
100
AcDbEntity
  8
101
  6
Continuous
 62
     7
370
    30
100
AcDbLine
 10
136.614440377788
 20
-21.91941624365501
 30
0.0
 11
136.314630733118
 21
-21.25317258883274
 31
0.0
  0
LINE
  5
102
330
1F
100
AcDbEntity
  8
101
  6
Continuous
 62
     7
370
    30
100
AcDbLine
 10
136.314630733118
 20
-21.25317258883274
 30
0.0
 11
136.5145038295647
 21
-3.164657360406352
 31
0.0
  0
LINE
  5
103
330
1F
100
AcDbEntity
  8
101
  6
Continuous
 62
     7
370
    30
100
AcDbLine
 10
136.5145038295647
 20
-3.164657360406352
 30
0.0
 11
135.748323626519
 21
-1.965418781726157
 31
0.0
  0
LINE
  5
104
330
1F
100
AcDbEntity
  8
101
  6
Continuous
 62
     7
370
    30
100
AcDbLine
 10
135.748323626519
 20
-1.965418781726157
 30
0.0
 11
134.349211951392
 21
-0.7994923857870617
 31
0.0
  0
LINE
  5
105
330
1F
100
AcDbEntity
  8
101
  6
Continuous
 62
     7
370
    30
100
AcDbLine
 10
134.349211951392
 20
-0.7994923857870617
 30
0.0
 11
132.3837931696662
 21
0.0333121827408718
 31
0.0
  0
LINE
  5
106
330
1F
100
AcDbEntity
  8
101
  6
Continuous
 62
     7
370
    30
100
AcDbLine
 10
132.3837931696662
 20
0.0333121827408718
 30
0.0
 11
130.7848083980926
 21
0.399746192893133
 31
0.0
  0
LINE
  5
107
330
1F
100
AcDbEntity
  8
101
  6
Continuous
 62
     7
370
    30
100
AcDbLine
 10
130.7848083980926
 20
0.399746192893133
 30
0.0
 11
130.9513693117982
 21
2.864847715735777
 31
0.0
  0
LINE
  5
108
330
1F
100
AcDbEntity
  8
101
  6
Continuous
 62
     7
370
    30
100
AcDbLine
 10
130.9513693117982
 20
2.864847715735777
 30
0.0
 11
130.8181205808337
 21
3.964149746192618
 31
0.0
  0
LINE
  5
109
330
1F
100
AcDbEntity
  8
101
  6
Continuous
 62
     7
370
    30
100
AcDbLine
 10
130.8181205808337
 20
3.964149746192618
 30
0.0
 11
130.3184378397169
 21
4.597081218273843
 31
0.0
  0
LINE
  5
10A
330
1F
100
AcDbEntity
  8
101
  6
Continuous
 62
     7
370
    30
100
AcDbLine
 10
130.3184378397169
 20
4.597081218273843
 30
0.0
 11
130.8514327635748
 21
5.363261421319578
 31
0.0
  0
LINE
  5
10B
330
1F
100
AcDbEntity
  8
101
  6
Continuous
 62
     7
370
    30
100
AcDbLine
 10
130.8514327635748
 20
5.363261421319578
 30
0.0
 11
130.9846814945393
 21
6.262690355329653
 31
0.0
  0
LINE
  5
10C
330
1F
100
AcDbEntity
  8
101
  6
Continuous
 62
     7
370
    30
100
AcDbLine
 10
130.9846814945393
 20
6.262690355329653
 30
0.0
 11
130.5516231189048
 21
7.728426395938811
 31
0.0
  0
LINE
  5
10D
330
1F
100
AcDbEntity
  8
101
  6
Continuous
 62
     7
370
    30
100
AcDbLine
 10
130.5516231189048
 20
7.728426395938811
 30
0.0
 11
130.9180571290571
 21
8.594543147207844
 31
0.0
  0
LINE
  5
10E
330
1F
100
AcDbEntity
  8
101
  6
Continuous
 62
     7
370
    30
100
AcDbLine
 10
130.9180571290571
 20
8.594543147207844
 30
0.0
 11
131.0513058600215
 21
9.560596446700231
 31
0.0
  0
LINE
  5
10F
330
1F
100
AcDbEntity
  8
101
  6
Continuous
 62
     7
370
    30
100
AcDbLine
 10
131.0513058600215
 20
9.560596446700231
 30
0.0
 11
130.4516865706814
 21
10.59327411167482
 31
0.0
  0
LINE
  5
110
330
1F
100
AcDbEntity
  8
101
  6
Continuous
 62
     7
370
    30
100
AcDbLine
 10
130.4516865706814
 20
10.59327411167482
 30
0.0
 11
130.3184378397169
 21
11.09295685279159
 31
0.0
  0
LINE
  5
111
330
1F
100
AcDbEntity
  8
101
  6
Continuous
 62
     7
370
    30
100
AcDbLine
 10
130.3184378397169
 20
11.09295685279159
 30
0.0
 11
130.7514962153515
 21
11.92576142131952
 31
0.0
  0
LINE
  5
112
330
1F
100
AcDbEntity
  8
101
  6
Continuous
 62
     7
370
    30
100
AcDbLine
 10
130.7514962153515
 20
11.92576142131952
 30
0.0
 11
130.9846814945393
 21
12.99175126903526
 31
0.0
  0
LINE
  5
113
330
1F
100
AcDbEntity
  8
101
  6
Continuous
 62
     7
370
    30
100
AcDbLine
 10
130.9846814945393
 20
12.99175126903526
 30
0.0
 11
130.5183109361637
 21
14.35755076142101
 31
0.0
  0
LINE
  5
114
330
1F
100
AcDbEntity
  8
101
  6
Continuous
 62
     7
370
    30
100
AcDbLine
 10
130.5183109361637
 20
14.35755076142101
 30
0.0
 11
130.8847449463159
 21
15.190355329949
 31
0.0
  0
LINE
  5
115
330
1F
100
AcDbEntity
  8
101
  6
Continuous
 62
     7
370
    30
100
AcDbLine
 10
130.8847449463159
 20
15.190355329949
 30
0.0
 11
130.6515596671282
 21
16.48953045685249
 31
0.0
  0
LINE
  5
116
330
1F
100
AcDbEntity
  8
101
  6
Continuous
 62
     7
370
    30
100
AcDbLine
 10
130.6515596671282
 20
16.48953045685249
 30
0.0
 11
129.3190723574835
 21
17.8886421319794
 31
0.0
  0
LINE
  5
117
330
1F
100
AcDbEntity
  8
101
  6
Continuous
 62
     7
370
    30
100
AcDbLine
 10
129.3190723574835
 20
17.8886421319794
 30
0.0
 11
127.8200241341332
 21
18.92131979695404
 31
0.0
  0
LINE
  5
118
330
1F
100
AcDbEntity
  8
101
  6
Continuous
 62
     7
370
    30
100
AcDbLine
 10
127.8200241341332
 20
18.92131979695404
 30
0.0
 11
125.9212297178896
 21
20.05393401015198
 31
0.0
  0
LINE
  5
119
330
1F
100
AcDbEntity
  8
101
  6
Continuous
 62
     7
370
    30
100
AcDbLine
 10
125.9212297178896
 20
20.05393401015198
 30
0.0
 11
125.0218007838794
 21
20.78680203045656
 31
0.0
  0
LINE
  5
11A
330
1F
100
AcDbEntity
  8
101
  6
Continuous
 62
     7
370
    30
100
AcDbLine
 10
125.0218007838794
 20
20.78680203045656
 30
0.0
 11
125.0884251493617
 21
22.28585025380681
 31
0.0
  0
LINE
  5
11B
330
1F
100
AcDbEntity
  8
101
  6
Continuous
 62
     7
370
    30
100
AcDbLine
 10
125.0884251493617
 20
22.28585025380681
 30
0.0
 11
124.0890596671282
 21
22.91878172588798
 31
0.0
  0
LINE
  5
11C
330
1F
100
AcDbEntity
  8
101
  6
Continuous
 62
     7
370
    30
100
AcDbLine
 10
124.0890596671282
 20
22.91878172588798
 30
0.0
 11
123.2562550986002
 21
23.3185279187814
 31
0.0
  0
LINE
  5
11D
330
1F
100
AcDbEntity
  8
101
  6
Continuous
 62
     7
370
    30
100
AcDbLine
 10
123.2562550986002
 20
23.3185279187814
 30
0.0
 11
121.9903921544378
 21
23.38515228426365
 31
0.0
  0
LINE
  5
11E
330
1F
100
AcDbEntity
  8
101
  6
Continuous
 62
     7
370
    30
100
AcDbLine
 10
121.9903921544378
 20
23.38515228426365
 30
0.0
 11
120.1915342864175
 21
23.41846446700475
 31
0.0
  0
LINE
  5
11F
330
1F
100
AcDbEntity
  8
101
  6
Continuous
 62
     7
370
    30
100
AcDbLine
 10
120.1915342864175
 20
23.41846446700475
 30
0.0
 11
118.7591104285495
 21
23.15196700507585
 31
0.0
  0
LINE
  5
120
330
1F
100
AcDbEntity
  8
101
  6
Continuous
 62
     7
370
    30
100
AcDbLine
 10
118.7591104285495
 20
23.15196700507585
 30
0.0
 11
117.6931205808337
 21
22.3191624365482
 31
0.0
  0
LINE
  5
121
330
1F
100
AcDbEntity
  8
101
  6
Continuous
 62
     7
370
    30
100
AcDbLine
 10
117.6264962153515
 20
20.85342639593904
 30
0.0
 11
118.7591104285495
 21
21.45304568527894
 31
0.0
  0
LINE
  5
122
330
1F
100
AcDbEntity
  8
101
  6
Continuous
 62
     7
370
    30
100
AcDbLine
 10
118.7591104285495
 20
21.45304568527894
 30
0.0
 11
120.3914073828642
 21
21.65291878172559
 31
0.0
  0
LINE
  5
123
330
1F
100
AcDbEntity
  8
101
  6
Continuous
 62
     7
370
    30
100
AcDbLine
 10
120.3914073828642
 20
21.65291878172559
 30
0.0
 11
121.75720687525
 21
21.71954314720784
 31
0.0
  0
LINE
  5
124
330
1F
100
AcDbEntity
  8
101
  6
Continuous
 62
     7
370
    30
100
AcDbLine
 10
121.75720687525
 20
21.71954314720784
 30
0.0
 11
123.3561916468236
 21
21.51967005076114
 31
0.0
  0
LINE
  5
125
330
1F
100
AcDbEntity
  8
101
  6
Continuous
 62
     7
370
    30
100
AcDbLine
 10
123.3561916468236
 20
21.51967005076114
 30
0.0
 11
125.0218007838794
 21
20.78680203045656
 31
0.0
  0
LINE
  5
126
330
1F
100
AcDbEntity
  8
101
  6
Continuous
 62
     7
370
    30
100
AcDbLine
 10
115.9275748955545
 20
19.32106598984768
 30
0.0
 11
118.2594276874327
 21
19.98730964466978
 31
0.0
  0
LINE
  5
127
330
1F
100
AcDbEntity
  8
101
  6
Continuous
 62
     7
370
    30
100
AcDbLine
 10
118.2594276874327
 20
19.98730964466978
 30
0.0
 11
120.6912170275342
 21
20.12055837563423
 31
0.0
  0
LINE
  5
128
330
1F
100
AcDbEntity
  8
101
  6
Continuous
 62
     7
370
    30
100
AcDbLine
 10
120.6912170275342
 20
20.12055837563423
 30
0.0
 11
123.6226891087525
 21
20.05393401015198
 31
0.0
  0
LINE
  5
129
330
1F
100
AcDbEntity
  8
101
  6
Continuous
 62
     7
370
    30
100
AcDbLine
 10
123.6226891087525
 20
20.05393401015198
 30
0.0
 11
125.6547322559606
 21
19.65418781725856
 31
0.0
  0
LINE
  5
12A
330
1F
100
AcDbEntity
  8
101
  6
Continuous
 62
     7
370
    30
100
AcDbLine
 10
125.6547322559606
 20
19.65418781725856
 30
0.0
 11
127.4618179684355
 21
19.13498663263334
 31
0.0
  0
LINE
  5
12B
330
1F
100
AcDbEntity
  8
101
  6
Continuous
 62
     7
370
    30
100
AcDbLine
 10
112.6629809869251
 20
16.22303299492359
 30
0.0
 11
114.8948972305799
 21
17.55552030456829
 31
0.0
  0
LINE
  5
12C
330
1F
100
AcDbEntity
  8
101
  6
Continuous
 62
     7
370
    30
100
AcDbLine
 10
114.8948972305799
 20
17.55552030456829
 30
0.0
 11
117.5931840326104
 21
18.68813451776629
 31
0.0
  0
LINE
  5
12D
330
1F
100
AcDbEntity
  8
101
  6
Continuous
 62
     7
370
    30
100
AcDbLine
 10
117.5931840326104
 20
18.68813451776629
 30
0.0
 11
120.324783017382
 21
19.1545050761419
 31
0.0
  0
LINE
  5
12E
330
1F
100
AcDbEntity
  8
101
  6
Continuous
 62
     7
370
    30
100
AcDbLine
 10
112.2299226112906
 20
12.89181472081196
 30
0.0
 11
114.2952779412398
 21
14.39086294416217
 31
0.0
  0
LINE
  5
12F
330
1F
100
AcDbEntity
  8
101
  6
Continuous
 62
     7
370
    30
100
AcDbLine
 10
114.2952779412398
 20
14.39086294416217
 30
0.0
 11
116.926940377788
 21
15.35691624365455
 31
0.0
  0
LINE
  5
130
330
1F
100
AcDbEntity
  8
101
  6
Continuous
 62
     7
370
    30
100
AcDbLine
 10
116.926940377788
 20
15.35691624365455
 30
0.0
 11
120.4580317483464
 21
16.12309644670023
 31
0.0
  0
LINE
  5
131
330
1F
100
AcDbEntity
  8
101
  6
Continuous
 62
     7
370
    30
100
AcDbLine
 10
120.4580317483464
 20
16.12309644670023
 30
0.0
 11
123.8891865706815
 21
16.18972081218249
 31
0.0
  0
LINE
  5
132
330
1F
100
AcDbEntity
  8
101
  6
Continuous
 62
     7
370
    30
100
AcDbLine
 10
123.8891865706815
 20
16.18972081218249
 30
0.0
 11
126.4209124590064
 21
15.92322335025352
 31
0.0
  0
LINE
  5
133
330
1F
100
AcDbEntity
  8
101
  6
Continuous
 62
     7
370
    30
100
AcDbLine
 10
126.4209124590064
 20
15.92322335025352
 30
0.0
 11
128.31970687525
 21
15.45685279187791
 31
0.0
  0
LINE
  5
134
330
1F
100
AcDbEntity
  8
101
  6
Continuous
 62
     7
370
    30
100
AcDbLine
 10
128.31970687525
 20
15.45685279187791
 30
0.0
 11
129.9186916468236
 21
14.69067258883223
 31
0.0
  0
LINE
  5
135
330
1F
100
AcDbEntity
  8
101
  6
Continuous
 62
     7
370
    30
100
AcDbLine
 10
130.4127943875567
 20
11.27441175248345
 30
0.0
 11
127.9199606823566
 21
12.22557106598958
 31
0.0
  0
LINE
  5
136
330
1F
100
AcDbEntity
  8
101
  6
Continuous
 62
     7
370
    30
100
AcDbLine
 10
127.9199606823566
 20
12.22557106598958
 30
0.0
 11
124.0890596671282
 21
12.99175126903532
 31
0.0
  0
LINE
  5
137
330
1F
100
AcDbEntity
  8
101
  6
Continuous
 62
     7
370
    30
100
AcDbLine
 10
124.0890596671282
 20
12.99175126903532
 30
0.0
 11
120.3580952001231
 21
12.95843908629416
 31
0.0
  0
LINE
  5
138
330
1F
100
AcDbEntity
  8
101
  6
Continuous
 62
     7
370
    30
100
AcDbLine
 10
120.3580952001231
 20
12.95843908629416
 30
0.0
 11
117.3266865706815
 21
12.52538071065965
 31
0.0
  0
LINE
  5
139
330
1F
100
AcDbEntity
  8
101
  6
Continuous
 62
     7
370
    30
100
AcDbLine
 10
117.3266865706815
 20
12.52538071065965
 30
0.0
 11
114.9615215960622
 21
11.65926395939061
 31
0.0
  0
LINE
  5
13A
330
1F
100
AcDbEntity
  8
101
  6
Continuous
 62
     7
370
    30
100
AcDbLine
 10
114.9615215960622
 20
11.65926395939061
 30
0.0
 11
113.0627271798185
 21
10.22684010152255
 31
0.0
  0
LINE
  5
13B
330
1F
100
AcDbEntity
  8
101
  6
Continuous
 62
     7
370
    30
100
AcDbLine
 10
113.1626637280419
 20
7.095494923857586
 30
0.0
 11
115.3612677889556
 21
8.49460659898449
 31
0.0
  0
LINE
  5
13C
330
1F
100
AcDbEntity
  8
101
  6
Continuous
 62
     7
370
    30
100
AcDbLine
 10
115.3612677889556
 20
8.49460659898449
 30
0.0
 11
118.326052052915
 21
9.127538071065715
 31
0.0
  0
LINE
  5
13D
330
1F
100
AcDbEntity
  8
101
  6
Continuous
 62
     7
370
    30
100
AcDbLine
 10
118.326052052915
 20
9.127538071065715
 30
0.0
 11
121.2575241341333
 21
9.627220812182486
 31
0.0
  0
LINE
  5
13E
330
1F
100
AcDbEntity
  8
101
  6
Continuous
 62
     7
370
    30
100
AcDbLine
 10
121.2575241341333
 20
9.627220812182486
 30
0.0
 11
124.4221814945394
 21
9.527284263959132
 31
0.0
  0
LINE
  5
13F
330
1F
100
AcDbEntity
  8
101
  6
Continuous
 62
     7
370
    30
100
AcDbLine
 10
124.4221814945394
 20
9.527284263959132
 30
0.0
 11
127.2870292102754
 21
9.19416243654797
 31
0.0
  0
LINE
  5
140
330
1F
100
AcDbEntity
  8
101
  6
Continuous
 62
     7
370
    30
100
AcDbLine
 10
127.2870292102754
 20
9.19416243654797
 30
0.0
 11
129.4856332711891
 21
8.594543147207844
 31
0.0
  0
LINE
  5
141
330
1F
100
AcDbEntity
  8
101
  6
Continuous
 62
     7
370
    30
100
AcDbLine
 10
129.4856332711891
 20
8.594543147207844
 30
0.0
 11
130.1185647432703
 21
8.128172588832228
 31
0.0
  0
LINE
  5
142
330
1F
100
AcDbEntity
  8
101
  6
Continuous
 62
     7
370
    30
100
AcDbLine
 10
129.8853794640825
 20
5.096763959390557
 30
0.0
 11
127.9199606823566
 21
5.862944162436236
 31
0.0
  0
LINE
  5
143
330
1F
100
AcDbEntity
  8
101
  6
Continuous
 62
     7
370
    30
100
AcDbLine
 10
127.9199606823566
 20
5.862944162436236
 30
0.0
 11
124.7219911392094
 21
6.196065989847455
 31
0.0
  0
LINE
  5
144
330
1F
100
AcDbEntity
  8
101
  6
Continuous
 62
     7
370
    30
100
AcDbLine
 10
124.7219911392094
 20
6.196065989847455
 30
0.0
 11
120.7578413930165
 21
6.296002538070809
 31
0.0
  0
LINE
  5
145
330
1F
100
AcDbEntity
  8
101
  6
Continuous
 62
     7
370
    30
100
AcDbLine
 10
120.7578413930165
 20
6.296002538070809
 30
0.0
 11
118.0928667737271
 21
6.029505076141845
 31
0.0
  0
LINE
  5
146
330
1F
100
AcDbEntity
  8
101
  6
Continuous
 62
     7
370
    30
100
AcDbLine
 10
118.0928667737271
 20
6.029505076141845
 30
0.0
 11
115.6943896163667
 21
5.496510152283975
 31
0.0
  0
LINE
  5
147
330
1F
100
AcDbEntity
  8
101
  6
Continuous
 62
     7
370
    30
100
AcDbLine
 10
115.6943896163667
 20
5.496510152283975
 30
0.0
 11
114.1620292102754
 21
5.096763959390557
 31
0.0
  0
LINE
  5
148
330
1F
100
AcDbEntity
  8
101
  6
Continuous
 62
     7
370
    30
100
AcDbLine
 10
111.9967373321028
 20
0.7328680203044655
 30
0.0
 11
115.1280825097678
 21
1.465736040608874
 31
0.0
  0
LINE
  5
149
330
1F
100
AcDbEntity
  8
101
  6
Continuous
 62
     7
370
    30
100
AcDbLine
 10
115.1280825097678
 20
1.465736040608874
 30
0.0
 11
119.2587931696662
 21
1.93210659898449
 31
0.0
  0
LINE
  5
14A
330
1F
100
AcDbEntity
  8
101
  6
Continuous
 62
     7
370
    30
100
AcDbLine
 10
119.2587931696662
 20
1.93210659898449
 30
0.0
 11
123.8558743879404
 21
1.665609137055583
 31
0.0
  0
LINE
  5
14B
330
1F
100
AcDbEntity
  8
101
  6
Continuous
 62
     7
370
    30
100
AcDbLine
 10
123.8558743879404
 20
1.665609137055583
 30
0.0
 11
127.6201510376866
 21
1.165926395938811
 31
0.0
  0
LINE
  5
14C
330
1F
100
AcDbEntity
  8
101
  6
Continuous
 62
     7
370
    30
100
AcDbLine
 10
127.6201510376866
 20
1.165926395938811
 30
0.0
 11
130.7848083980926
 21
0.399746192893133
 31
0.0
  0
LINE
  5
14D
330
1F
100
AcDbEntity
  8
101
  6
Continuous
 62
     7
370
    30
100
AcDbLine
 10
106.2176479744973
 20
-22.92567390162816
 30
0.0
 11
107.0332221036764
 21
-21.88610406091402
 31
0.0
  0
LINE
  5
14E
330
1F
100
AcDbEntity
  8
101
  6
Continuous
 62
     7
370
    30
100
AcDbLine
 10
107.0332221036764
 20
-21.88610406091402
 30
0.0
 11
109.3650748955546
 21
-20.78680203045718
 31
0.0
  0
LINE
  5
14F
330
1F
100
AcDbEntity
  8
101
  6
Continuous
 62
     7
370
    30
100
AcDbLine
 10
109.3650748955546
 20
-20.78680203045718
 30
0.0
 11
112.6962931696662
 21
-19.88737309644699
 31
0.0
  0
LINE
  5
150
330
1F
100
AcDbEntity
  8
101
  6
Continuous
 62
     7
370
    30
100
AcDbLine
 10
112.6962931696662
 20
-19.88737309644699
 30
0.0
 11
116.2940089057069
 21
-19.58756345177693
 31
0.0
  0
LINE
  5
151
330
1F
100
AcDbEntity
  8
101
  6
Continuous
 62
     7
370
    30
100
AcDbLine
 10
116.2940089057069
 20
-19.58756345177693
 30
0.0
 11
119.758475910783
 21
-19.42100253807138
 31
0.0
  0
LINE
  5
152
330
1F
100
AcDbEntity
  8
101
  6
Continuous
 62
     7
370
    30
100
AcDbLine
 10
119.758475910783
 20
-19.42100253807138
 30
0.0
 11
123.5893769260115
 21
-19.48762690355358
 31
0.0
  0
LINE
  5
153
330
1F
100
AcDbEntity
  8
101
  6
Continuous
 62
     7
370
    30
100
AcDbLine
 10
123.5893769260115
 20
-19.48762690355358
 30
0.0
 11
128.01989723058
 21
-19.75412436548254
 31
0.0
  0
LINE
  5
154
330
1F
100
AcDbEntity
  8
101
  6
Continuous
 62
     7
370
    30
100
AcDbLine
 10
128.01989723058
 20
-19.75412436548254
 30
0.0
 11
130.884744946316
 21
-20.25380710659931
 31
0.0
  0
LINE
  5
155
330
1F
100
AcDbEntity
  8
101
  6
Continuous
 62
     7
370
    30
100
AcDbLine
 10
130.884744946316
 20
-20.25380710659931
 30
0.0
 11
133.1832855554531
 21
-20.78680203045718
 31
0.0
  0
LINE
  5
156
330
1F
100
AcDbEntity
  8
101
  6
Continuous
 62
     7
370
    30
100
AcDbLine
 10
133.1832855554531
 20
-20.78680203045718
 30
0.0
 11
134.9488312407322
 21
-21.71954314720841
 31
0.0
  0
LINE
  5
157
330
1F
100
AcDbEntity
  8
101
  6
Continuous
 62
     7
370
    30
100
AcDbLine
 10
134.9488312407322
 20
-21.71954314720841
 30
0.0
 11
135.5151383473311
 21
-22.08597715736056
 31
0.0
  0
LINE
  5
158
330
1F
100
AcDbEntity
  8
101
  6
Continuous
 62
     7
370
    30
100
AcDbLine
 10
135.5151383473311
 20
-22.08597715736056
 30
0.0
 11
135.7566516722043
 21
-22.38578680203074
 31
0.0
  0
LINE
  5
159
330
1F
100
AcDbEntity
  8
101
  6
Continuous
 62
     7
370
    30
100
AcDbLine
 10
135.7566516722043
 20
-22.38578680203074
 30
0.0
 11
135.806619946316
 21
-22.73556472081253
 31
0.0
  0
LINE
  5
15A
330
1F
100
AcDbEntity
  8
101
  6
Continuous
 62
     7
370
    30
100
AcDbLine
 10
135.806619946316
 20
-22.73556472081253
 30
0.0
 11
135.6628454403234
 21
-23.18557440519197
 31
0.0
  0
LINE
  5
15B
330
1F
100
AcDbEntity
  8
101
  6
Continuous
 62
     7
370
    30
100
AcDbLine
 10
136.314630733118
 20
-21.25317258883274
 30
0.0
 11
134.2825875859099
 21
-20.0539340101526
 31
0.0
  0
LINE
  5
15C
330
1F
100
AcDbEntity
  8
101
  6
Continuous
 62
     7
370
    30
100
AcDbLine
 10
134.2825875859099
 20
-20.0539340101526
 30
0.0
 11
131.0846180427627
 21
-19.08788071066027
 31
0.0
  0
LINE
  5
15D
330
1F
100
AcDbEntity
  8
101
  6
Continuous
 62
     7
370
    30
100
AcDbLine
 10
131.0846180427627
 20
-19.08788071066027
 30
0.0
 11
127.9532728650977
 21
-18.52157360406125
 31
0.0
  0
LINE
  5
15E
330
1F
100
AcDbEntity
  8
101
  6
Continuous
 62
     7
370
    30
100
AcDbLine
 10
127.9532728650977
 20
-18.52157360406125
 30
0.0
 11
123.3228794640825
 21
-18.25507614213228
 31
0.0
  0
LINE
  5
15F
330
1F
100
AcDbEntity
  8
101
  6
Continuous
 62
     7
370
    30
100
AcDbLine
 10
123.3228794640825
 20
-18.25507614213228
 30
0.0
 11
119.2587931696662
 21
-18.08851522842673
 31
0.0
  0
LINE
  5
160
330
1F
100
AcDbEntity
  8
101
  6
Continuous
 62
     7
370
    30
100
AcDbLine
 10
119.2587931696662
 20
-18.08851522842673
 30
0.0
 11
114.9615215960621
 21
-18.38832487309679
 31
0.0
  0
LINE
  5
161
330
1F
100
AcDbEntity
  8
101
  6
Continuous
 62
     7
370
    30
100
AcDbLine
 10
114.9615215960621
 20
-18.38832487309679
 30
0.0
 11
111.3304936772804
 21
-18.95463197969576
 31
0.0
  0
LINE
  5
162
330
1F
100
AcDbEntity
  8
101
  6
Continuous
 62
     7
370
    30
100
AcDbLine
 10
111.3304936772804
 20
-18.95463197969576
 30
0.0
 11
108.7654556062144
 21
-19.58756345177704
 31
0.0
  0
LINE
  5
163
330
1F
100
AcDbEntity
  8
101
  6
Continuous
 62
     7
370
    30
100
AcDbLine
 10
108.7654556062144
 20
-19.58756345177704
 30
0.0
 11
107.2664073828642
 21
-20.35374365482272
 31
0.0
  0
LINE
  5
164
330
1F
100
AcDbEntity
  8
101
  6
Continuous
 62
     7
370
    30
100
AcDbLine
 10
107.2664073828642
 20
-20.35374365482272
 30
0.0
 11
106.458586951392
 21
-20.92837880710698
 31
0.0
  0
LINE
  5
165
330
1F
100
AcDbEntity
  8
101
  6
Continuous
 62
     7
370
    30
100
AcDbLine
 10
106.458586951392
 20
-20.92837880710698
 30
0.0
 11
106.1421981955314
 21
-21.51117213019842
 31
0.0
  0
TEXT
  5
166
330
1F
100
AcDbEntity
  8
100
  6
Continuous
 62
     7
370
     9
100
AcDbText
 10
-16.46160152115289
 20
91.09090507336921
 30
0.0
 40
25.0
  1
イカツリランプ(IK-RT-C)
 41
0.71875
100
AcDbText
  0
INSERT
  5
2ED
330
1F
100
AcDbEntity
  8
0
100
AcDbBlockReference
  2
*G12
 10
0.0
 20
0.0
 30
0.0
  0
LINE
  5
2EE
330
1F
100
AcDbEntity
  8
101
  6
Continuous
 62
     7
370
    30
100
AcDbLine
 10
544.7162793897403
 20
56.50942223020394
 30
0.0
 11
545.1436226552262
 21
56.26015198210996
 31
0.0
  0
LINE
  5
2EF
330
1F
100
AcDbEntity
  8
101
  6
Continuous
 62
     7
370
    30
100
AcDbLine
 10
544.8735046378342
 20
57.09619211227243
 30
0.0
 11
544.7162793897403
 21
56.50942223020394
 31
0.0
  0
LINE
  5
2F0
330
1F
100
AcDbEntity
  8
101
  6
Continuous
 62
     7
370
    30
100
AcDbLine
 10
546.3717593704461
 20
64.19659279270843
 30
0.0
 11
544.8735046378342
 21
57.09619211227243
 31
0.0
  0
LINE
  5
2F1
330
1F
100
AcDbEntity
  8
101
  6
Continuous
 62
     7
370
    30
100
AcDbLine
 10
547.4466454310409
 20
65.52574552341088
 30
0.0
 11
546.3717593704461
 21
64.19659279270843
 31
0.0
  0
LINE
  5
2F2
330
1F
100
AcDbEntity
  8
101
  6
Continuous
 62
     7
370
    30
100
AcDbLine
 10
549.6172649555032
 20
66.92066622314076
 30
0.0
 11
547.4466454310409
 21
65.52574552341088
 31
0.0
  0
LINE
  5
2F3
330
1F
100
AcDbEntity
  8
101
  6
Continuous
 62
     7
370
    30
100
AcDbLine
 10
550.9787118337598
 20
67.13984505819457
 30
0.0
 11
549.6172649555032
 21
66.92066622314076
 31
0.0
  0
LINE
  5
2F4
330
1F
100
AcDbEntity
  8
101
  6
Continuous
 62
     7
370
    30
100
AcDbLine
 10
552.7779240631131
 20
66.47806206335542
 30
0.0
 11
550.9787118337598
 21
67.13984505819457
 31
0.0
  0
LINE
  5
2F5
330
1F
100
AcDbEntity
  8
101
  6
Continuous
 62
     7
370
    30
100
AcDbLine
 10
553.8824695631131
 20
64.56493313808357
 30
0.0
 11
552.7779240631131
 21
66.47806206335542
 31
0.0
  0
LINE
  5
2F6
330
1F
100
AcDbEntity
  8
101
  6
Continuous
 62
     7
370
    30
100
AcDbLine
 10
554.9629424987062
 20
61.22077311743334
 30
0.0
 11
553.8824695631131
 21
64.56493313808357
 31
0.0
  0
LINE
  5
2F7
330
1F
100
AcDbEntity
  8
101
  6
Continuous
 62
     7
370
    30
100
AcDbLine
 10
555.7634631862053
 20
57.50241261417517
 30
0.0
 11
554.9629424987062
 21
61.22077311743334
 31
0.0
  0
LINE
  5
2F8
330
1F
100
AcDbEntity
  8
101
  6
Continuous
 62
     7
370
    30
100
AcDbLine
 10
555.4857140386508
 20
56.63348824949833
 30
0.0
 11
555.7634631862053
 21
57.50241261417517
 31
0.0
  0
LINE
  5
2F9
330
1F
100
AcDbEntity
  8
101
  6
Continuous
 62
     7
370
    30
100
AcDbLine
 10
545.1436226552262
 20
56.26015198210996
 30
0.0
 11
555.4857140386508
 21
56.63348824949833
 31
0.0
  0
LINE
  5
2FA
330
1F
100
AcDbEntity
  8
101
  6
Continuous
 62
     7
370
    30
100
AcDbLine
 10
596.2736437655627
 20
44.89581162693764
 30
0.0
 11
596.8702473783331
 21
45.94882785763997
 31
0.0
  0
LINE
  5
2FB
330
1F
100
AcDbEntity
  8
101
  6
Continuous
 62
     7
370
    30
100
AcDbLine
 10
595.4113274704536
 20
43.68938726226128
 30
0.0
 11
596.2736437655627
 21
44.89581162693764
 31
0.0
  0
LINE
  5
2FC
330
1F
100
AcDbEntity
  8
101
  6
Continuous
 62
     7
370
    30
100
AcDbLine
 10
595.1971454234387
 20
42.21945344976012
 30
0.0
 11
595.4113274704536
 21
43.68938726226128
 31
0.0
  0
LINE
  5
2FD
330
1F
100
AcDbEntity
  8
101
  6
Continuous
 62
     7
370
    30
100
AcDbLine
 10
595.4207292275205
 20
39.86855694134084
 30
0.0
 11
595.1971454234387
 21
42.21945344976012
 31
0.0
  0
LINE
  5
2FE
330
1F
100
AcDbEntity
  8
101
  6
Continuous
 62
     7
370
    30
100
AcDbLine
 10
603.0424260474894
 20
38.38784680926886
 30
0.0
 11
602.5334620996651
 21
38.16485222612124
 31
0.0
  0
LINE
  5
2FF
330
1F
100
AcDbEntity
  8
101
  6
Continuous
 62
     7
370
    30
100
AcDbLine
 10
603.5461785864826
 20
38.92668581729038
 30
0.0
 11
603.0424260474894
 21
38.38784680926886
 31
0.0
  0
LINE
  5
300
330
1F
100
AcDbEntity
  8
101
  6
Continuous
 62
     7
370
    30
100
AcDbLine
 10
603.7891342594506
 20
39.91723624772283
 30
0.0
 11
603.5461785864826
 21
38.92668581729038
 31
0.0
  0
LINE
  5
301
330
1F
100
AcDbEntity
  8
101
  6
Continuous
 62
     7
370
    30
100
AcDbLine
 10
604.2619090719517
 20
41.43018425193247
 30
0.0
 11
603.7891342594506
 21
39.91723624772283
 31
0.0
  0
LINE
  5
302
330
1F
100
AcDbEntity
  8
101
  6
Continuous
 62
     7
370
    30
100
AcDbLine
 10
604.255301002384
 20
42.91435776416336
 30
0.0
 11
604.2619090719517
 21
41.43018425193247
 31
0.0
  0
LINE
  5
303
330
1F
100
AcDbEntity
  8
101
  6
Continuous
 62
     7
370
    30
100
AcDbLine
 10
603.9747586673303
 20
44.38208934215015
 30
0.0
 11
604.255301002384
 21
42.91435776416336
 31
0.0
  0
LINE
  5
304
330
1F
100
AcDbEntity
  8
101
  6
Continuous
 62
     7
370
    30
100
AcDbLine
 10
603.349085702114
 20
44.72942270682677
 30
0.0
 11
603.9747586673303
 21
44.38208934215015
 31
0.0
  0
LINE
  5
305
330
1F
100
AcDbEntity
  8
101
  6
Continuous
 62
     7
370
    30
100
AcDbLine
 10
602.8198635719517
 20
43.92788032475835
 30
0.0
 11
603.349085702114
 21
44.72942270682677
 31
0.0
  0
LINE
  5
306
330
1F
100
AcDbEntity
  8
101
  6
Continuous
 62
     7
370
    30
100
AcDbLine
 10
602.2786058425982
 20
42.41082221198764
 30
0.0
 11
602.8198635719517
 21
43.92788032475835
 31
0.0
  0
LINE
  5
307
330
1F
100
AcDbEntity
  8
101
  6
Continuous
 62
     7
370
    30
100
AcDbLine
 10
602.0112810127054
 20
40.91020639948687
 30
0.0
 11
602.2786058425982
 21
42.41082221198764
 31
0.0
  0
LINE
  5
308
330
1F
100
AcDbEntity
  8
101
  6
Continuous
 62
     7
370
    30
100
AcDbLine
 10
602.0934922820032
 20
39.54053830410783
 30
0.0
 11
602.0112810127054
 21
40.91020639948687
 31
0.0
  0
LINE
  5
309
330
1F
100
AcDbEntity
  8
101
  6
Continuous
 62
     7
370
    30
100
AcDbLine
 10
602.5334620996651
 20
38.16485222612124
 30
0.0
 11
602.0934922820032
 21
39.54053830410783
 31
0.0
  0
LINE
  5
30A
330
1F
100
AcDbEntity
  8
101
  6
Continuous
 62
     7
370
    30
100
AcDbLine
 10
602.602298750478
 20
46.63653364949033
 30
0.0
 11
603.5013141621696
 21
48.14757327965287
 31
0.0
  0
LINE
  5
30B
330
1F
100
AcDbEntity
  8
101
  6
Continuous
 62
     7
370
    30
100
AcDbLine
 10
601.678618955369
 20
45.53639398454413
 30
0.0
 11
602.602298750478
 21
46.63653364949033
 31
0.0
  0
LINE
  5
30C
330
1F
100
AcDbEntity
  8
101
  6
Continuous
 62
     7
370
    30
100
AcDbLine
 10
601.1373603599902
 20
44.01933537177354
 30
0.0
 11
601.678618955369
 21
45.53639398454413
 31
0.0
  0
LINE
  5
30D
330
1F
100
AcDbEntity
  8
101
  6
Continuous
 62
     7
370
    30
100
AcDbLine
 10
600.6821287820034
 20
41.98509159405637
 30
0.0
 11
601.1373603599902
 21
44.01933537177354
 31
0.0
  0
LINE
  5
30E
330
1F
100
AcDbEntity
  8
101
  6
Continuous
 62
     7
370
    30
100
AcDbLine
 10
600.2351187871641
 20
39.81388161660914
 30
0.0
 11
600.6821287820034
 21
41.98509159405637
 31
0.0
  0
LINE
  5
30F
330
1F
100
AcDbEntity
  8
101
  6
Continuous
 62
     7
370
    30
100
AcDbLine
 10
600.8164606396097
 20
37.45696799160703
 30
0.0
 11
600.2351187871641
 21
39.81388161660914
 31
0.0
  0
LINE
  5
310
330
1F
100
AcDbEntity
  8
101
  6
Continuous
 62
     7
370
    30
100
AcDbLine
 10
601.8514219224875
 20
35.78709046579604
 30
0.0
 11
600.8164606396097
 21
37.45696799160703
 31
0.0
  0
LINE
  5
311
330
1F
100
AcDbEntity
  8
101
  6
Continuous
 62
     7
370
    30
100
AcDbLine
 10
585.9722049939576
 20
51.63160897041763
 30
0.0
 11
586.9736910893363
 21
52.35153017014807
 31
0.0
  0
LINE
  5
312
330
1F
100
AcDbEntity
  8
101
  6
Continuous
 62
     7
370
    30
100
AcDbLine
 10
584.2640152040094
 20
48.94482647557862
 30
0.0
 11
585.9722049939576
 21
51.63160897041763
 31
0.0
  0
LINE
  5
313
330
1F
100
AcDbEntity
  8
101
  6
Continuous
 62
     7
370
    30
100
AcDbLine
 10
583.2264200790074
 20
46.07835794976756
 30
0.0
 11
584.2640152040094
 21
48.94482647557862
 31
0.0
  0
LINE
  5
314
330
1F
100
AcDbEntity
  8
101
  6
Continuous
 62
     7
370
    30
100
AcDbLine
 10
583.0928361537358
 20
41.89155009541253
 30
0.0
 11
583.2264200790074
 21
46.07835794976756
 31
0.0
  0
LINE
  5
315
330
1F
100
AcDbEntity
  8
101
  6
Continuous
 62
     7
370
    30
100
AcDbLine
 10
584.3289208238431
 20
37.78695264432974
 30
0.0
 11
583.0928361537358
 21
41.89155009541253
 31
0.0
  0
LINE
  5
316
330
1F
100
AcDbEntity
  8
101
  6
Continuous
 62
     7
370
    30
100
AcDbLine
 10
582.3036039991183
 20
55.04035828617714
 30
0.0
 11
583.6362326719617
 21
56.98168971718934
 31
0.0
  0
LINE
  5
317
330
1F
100
AcDbEntity
  8
101
  6
Continuous
 62
     7
370
    30
100
AcDbLine
 10
580.9635962091701
 20
51.71586586090547
 30
0.0
 11
582.3036039991183
 21
55.04035828617714
 31
0.0
  0
LINE
  5
318
330
1F
100
AcDbEntity
  8
101
  6
Continuous
 62
     7
370
    30
100
AcDbLine
 10
580.11890238825
 20
46.55164447557843
 30
0.0
 11
580.9635962091701
 21
51.71586586090547
 31
0.0
  0
LINE
  5
319
330
1F
100
AcDbEntity
  8
101
  6
Continuous
 62
     7
370
    30
100
AcDbLine
 10
579.2457301678694
 20
40.94584112503554
 30
0.0
 11
580.11890238825
 21
46.55164447557843
 31
0.0
  0
LINE
  5
31A
330
1F
100
AcDbEntity
  8
101
  6
Continuous
 62
     7
370
    30
100
AcDbLine
 10
579.8057926434071
 20
34.82124046199158
 30
0.0
 11
579.2457301678694
 21
40.94584112503554
 31
0.0
  0
LINE
  5
31B
330
1F
100
AcDbEntity
  8
101
  6
Continuous
 62
     7
370
    30
100
AcDbLine
 10
578.9714804436842
 20
54.67540158128617
 30
0.0
 11
579.9582635386136
 21
57.51052112481813
 31
0.0
  0
LINE
  5
31C
330
1F
100
AcDbEntity
  8
101
  6
Continuous
 62
     7
370
    30
100
AcDbLine
 10
577.7092780879804
 20
50.97069019079834
 30
0.0
 11
578.9714804436842
 21
54.67540158128617
 31
0.0
  0
LINE
  5
31D
330
1F
100
AcDbEntity
  8
101
  6
Continuous
 62
     7
370
    30
100
AcDbLine
 10
576.8930643985715
 20
46.24805177068754
 30
0.0
 11
577.7092780879804
 21
50.97069019079834
 31
0.0
  0
LINE
  5
31E
330
1F
100
AcDbEntity
  8
101
  6
Continuous
 62
     7
370
    30
100
AcDbLine
 10
576.4285890428677
 20
41.16163668563047
 30
0.0
 11
576.8930643985715
 21
46.24805177068754
 31
0.0
  0
LINE
  5
31F
330
1F
100
AcDbEntity
  8
101
  6
Continuous
 62
     7
370
    30
100
AcDbLine
 10
576.9171648387769
 20
35.45926458376687
 30
0.0
 11
576.4285890428677
 21
41.16163668563047
 31
0.0
  0
LINE
  5
320
330
1F
100
AcDbEntity
  8
101
  6
Continuous
 62
     7
370
    30
100
AcDbLine
 10
574.5765072928712
 20
53.69680837639532
 30
0.0
 11
575.5220582838984
 21
56.72270401878893
 31
0.0
  0
LINE
  5
321
330
1F
100
AcDbEntity
  8
101
  6
Continuous
 62
     7
370
    30
100
AcDbLine
 10
573.2814207026532
 20
50.53996415085373
 30
0.0
 11
574.5765072928712
 21
53.69680837639532
 31
0.0
  0
LINE
  5
322
330
1F
100
AcDbEntity
  8
101
  6
Continuous
 62
     7
370
    30
100
AcDbLine
 10
572.0685457477585
 20
46.01345319595913
 30
0.0
 11
573.2814207026532
 21
50.53996415085373
 31
0.0
  0
LINE
  5
323
330
1F
100
AcDbEntity
  8
101
  6
Continuous
 62
     7
370
    30
100
AcDbLine
 10
572.1026105222173
 20
41.78172327584838
 30
0.0
 11
572.0685457477585
 21
46.01345319595913
 31
0.0
  0
LINE
  5
324
330
1F
100
AcDbEntity
  8
101
  6
Continuous
 62
     7
370
    30
100
AcDbLine
 10
573.0565402097164
 20
37.79765059025146
 30
0.0
 11
572.1026105222173
 21
41.78172327584838
 31
0.0
  0
LINE
  5
325
330
1F
100
AcDbEntity
  8
101
  6
Continuous
 62
     7
370
    30
100
AcDbLine
 10
562.4676558069975
 20
48.40631837123453
 30
0.0
 11
563.8493603675923
 21
49.20404587123437
 31
0.0
  0
LINE
  5
326
330
1F
100
AcDbEntity
  8
101
  6
Continuous
 62
     7
370
    30
100
AcDbLine
 10
558.812272317319
 20
48.84672029650608
 30
0.0
 11
562.4676558069975
 21
48.40631837123453
 31
0.0
  0
LINE
  5
327
330
1F
100
AcDbEntity
  8
101
  6
Continuous
 62
     7
370
    30
100
AcDbLine
 10
546.9509200866097
 20
49.50936700656513
 30
0.0
 11
558.812272317319
 21
48.84672029650608
 31
0.0
  0
LINE
  5
328
330
1F
100
AcDbEntity
  8
101
  6
Continuous
 62
     7
370
    30
100
AcDbLine
 10
537.3183250852537
 20
48.76623695764778
 30
0.0
 11
546.9509200866097
 21
49.50936700656513
 31
0.0
  0
LINE
  5
329
330
1F
100
AcDbEntity
  8
101
  6
Continuous
 62
     7
370
    30
100
AcDbLine
 10
565.7801117670527
 20
46.35079435058412
 30
0.0
 11
565.4031189629712
 21
48.96740304134153
 31
0.0
  0
LINE
  5
32A
330
1F
100
AcDbEntity
  8
101
  6
Continuous
 62
     7
370
    30
100
AcDbLine
 10
567.3755662670529
 20
43.58738609541967
 30
0.0
 11
565.7801117670527
 21
46.35079435058412
 31
0.0
  0
LINE
  5
32B
330
1F
100
AcDbEntity
  8
101
  6
Continuous
 62
     7
370
    30
100
AcDbLine
 10
569.0488270673227
 20
40.44375937503935
 30
0.0
 11
567.3755662670529
 21
43.58738609541967
 31
0.0
  0
LINE
  5
32C
330
1F
100
AcDbEntity
  8
101
  6
Continuous
 62
     7
370
    30
100
AcDbLine
 10
572.0095433276477
 20
38.75201238536044
 30
0.0
 11
569.0488270673227
 21
40.44375937503935
 31
0.0
  0
LINE
  5
32D
330
1F
100
AcDbEntity
  8
101
  6
Continuous
 62
     7
370
    30
100
AcDbLine
 10
564.5234961523726
 20
37.97277244079476
 30
0.0
 11
567.2836796124279
 21
36.87381244976757
 31
0.0
  0
LINE
  5
32E
330
1F
100
AcDbEntity
  8
101
  6
Continuous
 62
     7
370
    30
100
AcDbLine
 10
553.5453074860701
 20
38.57846098590733
 30
0.0
 11
564.5234961523726
 21
37.97277244079476
 31
0.0
  0
LINE
  5
32F
330
1F
100
AcDbEntity
  8
101
  6
Continuous
 62
     7
370
    30
100
AcDbLine
 10
540.5148209602517
 20
38.56610769596676
 30
0.0
 11
553.5453074860701
 21
38.57846098590733
 31
0.0
  0
LINE
  5
330
330
1F
100
AcDbEntity
  8
101
  6
Continuous
 62
     7
370
    30
100
AcDbLine
 10
529.8358200298121
 20
36.93540788156326
 30
0.0
 11
540.5148209602517
 21
38.56610769596676
 31
0.0
  0
LINE
  5
331
330
1F
100
AcDbEntity
  8
101
  6
Continuous
 62
     7
370
    30
100
AcDbLine
 10
525.7639918963839
 20
16.37438508834919
 30
0.0
 11
525.9749486482899
 21
15.14990527584848
 31
0.0
  0
LINE
  5
332
330
1F
100
AcDbEntity
  8
101
  6
Continuous
 62
     7
370
    30
100
AcDbLine
 10
526.3517843390474
 20
19.40629871335102
 30
0.0
 11
525.7639918963839
 21
16.37438508834919
 31
0.0
  0
LINE
  5
333
330
1F
100
AcDbEntity
  8
101
  6
Continuous
 62
     7
370
    30
100
AcDbLine
 10
526.3199217991028
 20
23.14330425139349
 30
0.0
 11
526.3517843390474
 21
19.40629871335102
 31
0.0
  0
LINE
  5
334
330
1F
100
AcDbEntity
  8
101
  6
Continuous
 62
     7
370
    30
100
AcDbLine
 10
526.2096633719287
 20
29.10245944922133
 30
0.0
 11
526.3199217991028
 21
23.14330425139349
 31
0.0
  0
LINE
  5
335
330
1F
100
AcDbEntity
  8
101
  6
Continuous
 62
     7
370
    30
100
AcDbLine
 10
526.5497982140529
 20
33.05423662123815
 30
0.0
 11
526.2096633719287
 21
29.10245944922133
 31
0.0
  0
LINE
  5
336
330
1F
100
AcDbEntity
  8
101
  6
Continuous
 62
     7
370
    30
100
AcDbLine
 10
527.1654789692174
 20
38.36966427205095
 30
0.0
 11
526.5497982140529
 21
33.05423662123815
 31
0.0
  0
LINE
  5
337
330
1F
100
AcDbEntity
  8
101
  6
Continuous
 62
     7
370
    30
100
AcDbLine
 10
528.7607754898675
 20
42.47925764514673
 30
0.0
 11
527.1654789692174
 21
38.36966427205095
 31
0.0
  0
LINE
  5
338
330
1F
100
AcDbEntity
  8
101
  6
Continuous
 62
     7
370
    30
100
AcDbLine
 10
530.358274745032
 20
46.09412577014876
 30
0.0
 11
528.7607754898675
 21
42.47925764514673
 31
0.0
  0
LINE
  5
339
330
1F
100
AcDbEntity
  8
101
  6
Continuous
 62
     7
370
    30
100
AcDbLine
 10
532.6921375001964
 20
48.43357490031104
 30
0.0
 11
530.358274745032
 21
46.09412577014876
 31
0.0
  0
LINE
  5
33A
330
1F
100
AcDbEntity
  8
101
  6
Continuous
 62
     7
370
    30
100
AcDbLine
 10
534.0365511251982
 20
50.76861819542034
 30
0.0
 11
532.6921375001964
 21
48.43357490031104
 31
0.0
  0
LINE
  5
33B
330
1F
100
AcDbEntity
  8
101
  6
Continuous
 62
     7
370
    30
100
AcDbLine
 10
535.845007998294
 20
53.15900700792133
 30
0.0
 11
534.0365511251982
 21
50.76861819542034
 31
0.0
  0
LINE
  5
33C
330
1F
100
AcDbEntity
  8
101
  6
Continuous
 62
     7
370
    30
100
AcDbLine
 10
539.6038838662291
 20
55.11662502531306
 30
0.0
 11
535.845007998294
 21
53.15900700792133
 31
0.0
  0
LINE
  5
33D
330
1F
100
AcDbEntity
  8
101
  6
Continuous
 62
     7
370
    30
100
AcDbLine
 10
539.7117812135137
 20
56.52519533781384
 30
0.0
 11
539.6038838662291
 21
55.11662502531306
 31
0.0
  0
LINE
  5
33E
330
1F
100
AcDbEntity
  8
101
  6
Continuous
 62
     7
370
    30
100
AcDbLine
 10
543.1877536665062
 20
67.31827044352156
 30
0.0
 11
539.7117812135137
 21
56.52519533781384
 31
0.0
  0
LINE
  5
33F
330
1F
100
AcDbEntity
  8
101
  6
Continuous
 62
     7
370
    30
100
AcDbLine
 10
544.5119096091697
 20
69.07476507368403
 30
0.0
 11
543.1877536665062
 21
67.31827044352156
 31
0.0
  0
LINE
  5
340
330
1F
100
AcDbEntity
  8
101
  6
Continuous
 62
     7
370
    30
100
AcDbLine
 10
547.0627484648736
 20
70.54749257368383
 30
0.0
 11
544.5119096091697
 21
69.07476507368403
 31
0.0
  0
LINE
  5
341
330
1F
100
AcDbEntity
  8
101
  6
Continuous
 62
     7
370
    30
100
AcDbLine
 10
549.9675292548218
 20
71.16171866064343
 30
0.0
 11
547.0627484648736
 21
70.54749257368383
 31
0.0
  0
LINE
  5
342
330
1F
100
AcDbEntity
  8
101
  6
Continuous
 62
     7
370
    30
100
AcDbLine
 10
553.0975068624317
 20
70.77225641771054
 30
0.0
 11
549.9675292548218
 21
71.16171866064343
 31
0.0
  0
LINE
  5
343
330
1F
100
AcDbEntity
  8
101
  6
Continuous
 62
     7
370
    30
100
AcDbLine
 10
555.8127686227568
 20
69.50564909297816
 30
0.0
 11
553.0975068624317
 21
70.77225641771054
 31
0.0
  0
LINE
  5
344
330
1F
100
AcDbEntity
  8
101
  6
Continuous
 62
     7
370
    30
100
AcDbLine
 10
557.5901105222173
 20
66.91811062069183
 30
0.0
 11
555.8127686227568
 21
69.50564909297816
 31
0.0
  0
LINE
  5
345
330
1F
100
AcDbEntity
  8
101
  6
Continuous
 62
     7
370
    30
100
AcDbLine
 10
558.6316798746628
 20
63.76405958264957
 30
0.0
 11
557.5901105222173
 21
66.91811062069183
 31
0.0
  0
LINE
  5
346
330
1F
100
AcDbEntity
  8
101
  6
Continuous
 62
     7
370
    30
100
AcDbLine
 10
559.6365496105255
 20
60.30539414514686
 30
0.0
 11
558.6316798746628
 21
63.76405958264957
 31
0.0
  0
LINE
  5
347
330
1F
100
AcDbEntity
  8
101
  6
Continuous
 62
     7
370
    30
100
AcDbLine
 10
560.2589969146076
 20
57.26364578944288
 30
0.0
 11
559.6365496105255
 21
60.30539414514686
 31
0.0
  0
LINE
  5
348
330
1F
100
AcDbEntity
  8
101
  6
Continuous
 62
     7
370
    30
100
AcDbLine
 10
561.7026550621619
 20
56.11315652911787
 30
0.0
 11
560.2589969146076
 21
57.26364578944288
 31
0.0
  0
LINE
  5
349
330
1F
100
AcDbEntity
  8
101
  6
Continuous
 62
     7
370
    30
100
AcDbLine
 10
574.3529239887895
 20
56.04770401878875
 30
0.0
 11
561.7026550621619
 21
56.11315652911787
 31
0.0
  0
LINE
  5
34A
330
1F
100
AcDbEntity
  8
101
  6
Continuous
 62
     7
370
    30
100
AcDbLine
 10
576.6380497961296
 20
57.36702201878904
 30
0.0
 11
574.3529239887895
 21
56.04770401878875
 31
0.0
  0
LINE
  5
34B
330
1F
100
AcDbEntity
  8
101
  6
Continuous
 62
     7
370
    30
100
AcDbLine
 10
581.5463923637949
 20
57.57915931063957
 30
0.0
 11
576.6380497961296
 21
57.36702201878904
 31
0.0
  0
LINE
  5
34C
330
1F
100
AcDbEntity
  8
101
  6
Continuous
 62
     7
370
    30
100
AcDbLine
 10
586.5533888670534
 20
56.14769697367626
 30
0.0
 11
581.5463923637949
 21
57.57915931063957
 31
0.0
  0
LINE
  5
34D
330
1F
100
AcDbEntity
  8
101
  6
Continuous
 62
     7
370
    30
100
AcDbLine
 10
587.907204249122
 20
54.66190994786513
 30
0.0
 11
586.5533888670534
 21
56.14769697367626
 31
0.0
  0
LINE
  5
34E
330
1F
100
AcDbEntity
  8
101
  6
Continuous
 62
     7
370
    30
100
AcDbLine
 10
590.0834105146079
 20
51.38352012829392
 30
0.0
 11
587.907204249122
 21
54.66190994786513
 31
0.0
  0
LINE
  5
34F
330
1F
100
AcDbEntity
  8
101
  6
Continuous
 62
     7
370
    30
100
AcDbLine
 10
592.7088295094471
 20
49.78161503807576
 30
0.0
 11
590.0834105146079
 21
51.38352012829392
 31
0.0
  0
LINE
  5
350
330
1F
100
AcDbEntity
  8
101
  6
Continuous
 62
     7
370
    30
100
AcDbLine
 10
596.885804865151
 20
48.43779150003354
 30
0.0
 11
592.7088295094471
 21
49.78161503807576
 31
0.0
  0
LINE
  5
351
330
1F
100
AcDbEntity
  8
101
  6
Continuous
 62
     7
370
    30
100
AcDbLine
 10
600.6332338548294
 20
47.83796209215404
 30
0.0
 11
596.885804865151
 21
48.43779150003354
 31
0.0
  0
LINE
  5
352
330
1F
100
AcDbEntity
  8
101
  6
Continuous
 62
     7
370
    30
100
AcDbLine
 10
603.5013141621696
 20
48.14757327965287
 30
0.0
 11
600.6332338548294
 21
47.83796209215404
 31
0.0
  0
LINE
  5
353
330
1F
100
AcDbEntity
  8
101
  6
Continuous
 62
     7
370
    30
100
AcDbLine
 10
604.2234384624394
 20
46.65136330220582
 30
0.0
 11
603.5013141621696
 21
48.14757327965287
 31
0.0
  0
LINE
  5
354
330
1F
100
AcDbEntity
  8
101
  6
Continuous
 62
     7
370
    30
100
AcDbLine
 10
605.1033780977626
 20
43.89999114623203
 30
0.0
 11
604.2234384624394
 21
46.65136330220582
 31
0.0
  0
LINE
  5
355
330
1F
100
AcDbEntity
  8
101
  6
Continuous
 62
     7
370
    30
100
AcDbLine
 10
604.7730766203152
 20
41.15845408698567
 30
0.0
 11
605.1033780977626
 21
43.89999114623203
 31
0.0
  0
LINE
  5
356
330
1F
100
AcDbEntity
  8
101
  6
Continuous
 62
     7
370
    30
100
AcDbLine
 10
603.9644931950438
 20
38.14077966171448
 30
0.0
 11
604.7730766203152
 21
41.15845408698567
 31
0.0
  0
LINE
  5
357
330
1F
100
AcDbEntity
  8
101
  6
Continuous
 62
     7
370
    30
100
AcDbLine
 10
601.8514219224875
 20
35.78709046579604
 30
0.0
 11
603.9644931950438
 21
38.14077966171448
 31
0.0
  0
LINE
  5
358
330
1F
100
AcDbEntity
  8
101
  6
Continuous
 62
     7
370
    30
100
AcDbLine
 10
598.3412258496613
 20
36.09874640845953
 30
0.0
 11
601.8514219224875
 21
35.78709046579604
 31
0.0
  0
LINE
  5
359
330
1F
100
AcDbEntity
  8
101
  6
Continuous
 62
     7
370
    30
100
AcDbLine
 10
596.1842545719443
 20
36.76654825193225
 30
0.0
 11
598.3412258496613
 21
36.09874640845953
 31
0.0
  0
LINE
  5
35A
330
1F
100
AcDbEntity
  8
101
  6
Continuous
 62
     7
370
    30
100
AcDbLine
 10
595.2413392890666
 20
38.27699742910983
 30
0.0
 11
596.1842545719443
 21
36.76654825193225
 31
0.0
  0
LINE
  5
35B
330
1F
100
AcDbEntity
  8
101
  6
Continuous
 62
     7
370
    30
100
AcDbLine
 10
592.5304828637948
 20
38.55415648970472
 30
0.0
 11
595.2413392890666
 21
38.27699742910983
 31
0.0
  0
LINE
  5
35C
330
1F
100
AcDbEntity
  8
101
  6
Continuous
 62
     7
370
    30
100
AcDbLine
 10
588.7365196608064
 20
37.63912951932787
 30
0.0
 11
592.5304828637948
 21
38.55415648970472
 31
0.0
  0
LINE
  5
35D
330
1F
100
AcDbEntity
  8
101
  6
Continuous
 62
     7
370
    30
100
AcDbLine
 10
585.4027843238431
 20
35.92696650193596
 30
0.0
 11
588.7365196608064
 21
37.63912951932787
 31
0.0
  0
LINE
  5
35E
330
1F
100
AcDbEntity
  8
101
  6
Continuous
 62
     7
370
    30
100
AcDbLine
 10
583.2853058502077
 20
34.56272680220576
 30
0.0
 11
585.4027843238431
 21
35.92696650193596
 31
0.0
  0
LINE
  5
35F
330
1F
100
AcDbEntity
  8
101
  6
Continuous
 62
     7
370
    30
100
AcDbLine
 10
579.8057926434071
 20
34.82124046199158
 30
0.0
 11
583.2853058502077
 21
34.56272680220576
 31
0.0
  0
LINE
  5
360
330
1F
100
AcDbEntity
  8
101
  6
Continuous
 62
     7
370
    30
100
AcDbLine
 10
575.9887785705811
 20
35.66432076933177
 30
0.0
 11
579.8057926434071
 21
34.82124046199158
 31
0.0
  0
LINE
  5
361
330
1F
100
AcDbEntity
  8
101
  6
Continuous
 62
     7
370
    30
100
AcDbLine
 10
573.0565402097164
 20
37.79765059025146
 30
0.0
 11
575.9887785705811
 21
35.66432076933177
 31
0.0
  0
LINE
  5
362
330
1F
100
AcDbEntity
  8
101
  6
Continuous
 62
     7
370
    30
100
AcDbLine
 10
572.3432275795539
 20
37.31496230737406
 30
0.0
 11
573.0565402097164
 21
37.79765059025146
 31
0.0
  0
LINE
  5
363
330
1F
100
AcDbEntity
  8
101
  6
Continuous
 62
     7
370
    30
100
AcDbLine
 10
571.7488270673226
 20
35.76722219460305
 30
0.0
 11
572.3432275795539
 21
37.31496230737406
 31
0.0
  0
LINE
  5
364
330
1F
100
AcDbEntity
  8
101
  6
Continuous
 62
     7
370
    30
100
AcDbLine
 10
571.2117005447626
 20
21.35664462176976
 30
0.0
 11
571.7488270673226
 21
35.76722219460305
 31
0.0
  0
LINE
  5
365
330
1F
100
AcDbEntity
  8
101
  6
Continuous
 62
     7
370
    30
100
AcDbLine
 10
571.2271202844375
 20
17.89357284921346
 30
0.0
 11
571.2117005447626
 21
21.35664462176976
 31
0.0
  0
LINE
  5
366
330
1F
100
AcDbEntity
  8
101
  6
Continuous
 62
     7
370
    30
100
AcDbLine
 10
572.4154897012899
 20
15.95798264106395
 30
0.0
 11
571.2271202844375
 21
17.89357284921346
 31
0.0
  0
LINE
  5
367
330
1F
100
AcDbEntity
  8
101
  6
Continuous
 62
     7
370
    30
100
AcDbLine
 10
576.0999434094393
 20
14.11723162041369
 30
0.0
 11
572.4154897012899
 21
15.95798264106395
 31
0.0
  0
LINE
  5
368
330
1F
100
AcDbEntity
  8
101
  6
Continuous
 62
     7
370
    30
100
AcDbLine
 10
577.3047551265614
 20
11.90770851280388
 30
0.0
 11
576.0999434094393
 21
14.11723162041369
 31
0.0
  0
LINE
  5
369
330
1F
100
AcDbEntity
  8
101
  6
Continuous
 62
     7
370
    30
100
AcDbLine
 10
563.7147965781904
 20
16.17802519133727
 30
0.0
 11
571.0337860067203
 21
15.16025564106428
 31
0.0
  0
LINE
  5
36A
330
1F
100
AcDbEntity
  8
101
  6
Continuous
 62
     7
370
    30
100
AcDbLine
 10
556.747547215416
 20
16.83201907666432
 30
0.0
 11
563.7147965781904
 21
16.17802519133727
 31
0.0
  0
LINE
  5
36B
330
1F
100
AcDbEntity
  8
101
  6
Continuous
 62
     7
370
    30
100
AcDbLine
 10
546.9039959621541
 20
17.31336797422261
 30
0.0
 11
556.747547215416
 21
16.83201907666432
 31
0.0
  0
LINE
  5
36C
330
1F
100
AcDbEntity
  8
101
  6
Continuous
 62
     7
370
    30
100
AcDbLine
 10
537.1629140265537
 20
17.00359880737403
 30
0.0
 11
546.9039959621541
 21
17.31336797422261
 31
0.0
  0
LINE
  5
36D
330
1F
100
AcDbEntity
  8
101
  6
Continuous
 62
     7
370
    30
100
AcDbLine
 10
527.1703591083452
 20
16.76121162313336
 30
0.0
 11
537.1629140265537
 21
17.00359880737403
 31
0.0
  0
LINE
  5
36E
330
1F
100
AcDbEntity
  8
101
  6
Continuous
 62
     7
370
    30
100
AcDbLine
 10
519.5124158776359
 20
10.14334038020013
 30
0.0
 11
520.5533951431217
 21
8.83122140275276
 31
0.0
  0
LINE
  5
36F
330
1F
100
AcDbEntity
  8
101
  6
Continuous
 62
     7
370
    30
100
AcDbLine
 10
520.0657114382308
 20
12.37591435764756
 30
0.0
 11
519.5124158776359
 21
10.14334038020013
 31
0.0
  0
LINE
  5
370
330
1F
100
AcDbEntity
  8
101
  6
Continuous
 62
     7
370
    30
100
AcDbLine
 10
522.412200745571
 20
13.58894765791717
 30
0.0
 11
520.0657114382308
 21
12.37591435764756
 31
0.0
  0
LINE
  5
371
330
1F
100
AcDbEntity
  8
101
  6
Continuous
 62
     7
370
    30
100
AcDbLine
 10
525.9749486482899
 20
15.14990527584848
 30
0.0
 11
522.412200745571
 21
13.58894765791717
 31
0.0
  0
LINE
  5
372
330
1F
100
AcDbEntity
  8
101
  6
Continuous
 62
     7
370
    30
100
AcDbLine
 10
527.8168807088848
 20
15.15049536280816
 30
0.0
 11
525.9749486482899
 21
15.14990527584848
 31
0.0
  0
LINE
  5
373
330
1F
100
AcDbEntity
  8
101
  6
Continuous
 62
     7
370
    30
100
AcDbLine
 10
533.6001656238346
 20
15.44264205546767
 30
0.0
 11
527.8168807088848
 21
15.15049536280816
 31
0.0
  0
LINE
  5
374
330
1F
100
AcDbEntity
  8
101
  6
Continuous
 62
     7
370
    30
100
AcDbLine
 10
540.8002429344334
 20
15.48992433508727
 30
0.0
 11
533.6001656238346
 21
15.44264205546767
 31
0.0
  0
LINE
  5
375
330
1F
100
AcDbEntity
  8
101
  6
Continuous
 62
     7
370
    30
100
AcDbLine
 10
548.3520594447622
 20
15.17343044976036
 30
0.0
 11
540.8002429344334
 21
15.48992433508727
 31
0.0
  0
LINE
  5
376
330
1F
100
AcDbEntity
  8
101
  6
Continuous
 62
     7
370
    30
100
AcDbLine
 10
556.032621937699
 20
15.00212398128576
 30
0.0
 11
548.3520594447622
 21
15.17343044976036
 31
0.0
  0
LINE
  5
377
330
1F
100
AcDbEntity
  8
101
  6
Continuous
 62
     7
370
    30
100
AcDbLine
 10
563.4167897482977
 20
14.73055216171434
 30
0.0
 11
556.032621937699
 21
15.00212398128576
 31
0.0
  0
LINE
  5
378
330
1F
100
AcDbEntity
  8
101
  6
Continuous
 62
     7
370
    30
100
AcDbLine
 10
570.8952066594358
 20
13.80482811144094
 30
0.0
 11
563.4167897482977
 21
14.73055216171434
 31
0.0
  0
LINE
  5
379
330
1F
100
AcDbEntity
  8
101
  6
Continuous
 62
     7
370
    30
100
AcDbLine
 10
577.3047551265614
 20
11.90770851280388
 30
0.0
 11
570.8952066594358
 21
13.80482811144094
 31
0.0
  0
LINE
  5
37A
330
1F
100
AcDbEntity
  8
101
  6
Continuous
 62
     7
370
    30
100
AcDbLine
 10
577.4976572966685
 20
9.609956153287953
 30
0.0
 11
577.3047551265614
 21
11.90770851280388
 31
0.0
  0
LINE
  5
37B
330
1F
100
AcDbEntity
  8
101
  6
Continuous
 62
     7
370
    30
100
AcDbLine
 10
576.8073955363435
 20
7.36916059269322
 30
0.0
 11
577.4976572966685
 21
9.609956153287953
 31
0.0
  0
LINE
  5
37C
330
1F
100
AcDbEntity
  8
101
  6
Continuous
 62
     7
370
    30
100
AcDbLine
 10
573.4078908643265
 20
6.752731405193913
 30
0.0
 11
574.6510152116113
 21
6.195030875570751
 31
0.0
  0
LINE
  5
37D
330
1F
100
AcDbEntity
  8
101
  6
Continuous
 62
     7
370
    30
100
AcDbLine
 10
569.895491190961
 20
7.559112095951491
 30
0.0
 11
573.4078908643265
 21
6.752731405193913
 31
0.0
  0
LINE
  5
37E
330
1F
100
AcDbEntity
  8
101
  6
Continuous
 62
     7
370
    30
100
AcDbLine
 10
565.9108289184048
 20
8.447113603021876
 30
0.0
 11
569.895491190961
 21
7.559112095951491
 31
0.0
  0
LINE
  5
37F
330
1F
100
AcDbEntity
  8
101
  6
Continuous
 62
     7
370
    30
100
AcDbLine
 10
559.4772070208465
 20
8.913201606280268
 30
0.0
 11
565.9108289184048
 21
8.447113603021876
 31
0.0
  0
LINE
  5
380
330
1F
100
AcDbEntity
  8
101
  6
Continuous
 62
     7
370
    30
100
AcDbLine
 10
552.7389698578025
 20
9.415988726121554
 30
0.0
 11
559.4772070208465
 21
8.913201606280268
 31
0.0
  0
LINE
  5
381
330
1F
100
AcDbEntity
  8
101
  6
Continuous
 62
     7
370
    30
100
AcDbLine
 10
546.3075506947586
 20
9.387351481285691
 30
0.0
 11
552.7389698578025
 21
9.415988726121554
 31
0.0
  0
LINE
  5
382
330
1F
100
AcDbEntity
  8
101
  6
Continuous
 62
     7
370
    30
100
AcDbLine
 10
538.7025914015518
 20
9.673163366612584
 30
0.0
 11
546.3075506947586
 21
9.387351481285691
 31
0.0
  0
LINE
  5
383
330
1F
100
AcDbEntity
  8
101
  6
Continuous
 62
     7
370
    30
100
AcDbLine
 10
540.2888021238348
 20
3.857583804108231
 30
0.0
 11
541.4014108616074
 21
8.680488941340968
 31
0.0
  0
LINE
  5
384
330
1F
100
AcDbEntity
  8
101
  6
Continuous
 62
     7
370
    30
100
AcDbLine
 10
538.9700745768199
 20
4.300778916878812
 30
0.0
 11
540.2888021238348
 21
3.857583804108231
 31
0.0
  0
LINE
  5
385
330
1F
100
AcDbEntity
  8
101
  6
Continuous
 62
     7
370
    30
100
AcDbLine
 10
538.3383831289956
 20
4.290354599217039
 30
0.0
 11
539.0318701844297
 21
9.225563784813744
 31
0.0
  0
LINE
  5
386
330
1F
100
AcDbEntity
  8
101
  6
Continuous
 62
     7
370
    30
100
AcDbLine
 10
536.8684493164945
 20
4.504536646232168
 30
0.0
 11
538.3383831289956
 21
4.290354599217039
 31
0.0
  0
LINE
  5
387
330
1F
100
AcDbEntity
  8
101
  6
Continuous
 62
     7
370
    30
100
AcDbLine
 10
535.4460705458481
 20
9.422712944599766
 30
0.0
 11
536.8684493164945
 21
4.504536646232168
 31
0.0
  0
LINE
  5
388
330
1F
100
AcDbEntity
  8
101
  6
Continuous
 62
     7
370
    30
100
AcDbLine
 10
531.8378113564391
 20
9.536039187532765
 30
0.0
 11
535.4460705458481
 21
9.422712944599766
 31
0.0
  0
LINE
  5
389
330
1F
100
AcDbEntity
  8
101
  6
Continuous
 62
     7
370
    30
100
AcDbLine
 10
525.0059160458408
 20
8.851046977480962
 30
0.0
 11
531.8378113564391
 21
9.536039187532765
 31
0.0
  0
LINE
  5
38A
330
1F
100
AcDbEntity
  8
101
  6
Continuous
 62
     7
370
    30
100
AcDbLine
 10
521.4898510311067
 20
7.575318225715762
 30
0.0
 11
525.0059160458408
 21
8.851046977480962
 31
0.0
  0
LINE
  5
38B
330
1F
100
AcDbEntity
  8
101
  6
Continuous
 62
     7
370
    30
100
AcDbLine
 10
527.2041506205692
 20
0.6254110070968864
 30
0.0
 11
526.3787564832677
 21
-0.2568484108275584
 31
0.0
  0
LINE
  5
38C
330
1F
100
AcDbEntity
  8
101
  6
Continuous
 62
     7
370
    30
100
AcDbLine
 10
530.3828651760032
 20
1.256079894326263
 30
0.0
 11
527.2041506205692
 21
0.6254110070968864
 31
0.0
  0
LINE
  5
38D
330
1F
100
AcDbEntity
  8
101
  6
Continuous
 62
     7
370
    30
100
AcDbLine
 10
535.8308536914927
 20
1.638068986446683
 30
0.0
 11
530.3828651760032
 21
1.256079894326263
 31
0.0
  0
LINE
  5
38E
330
1F
100
AcDbEntity
  8
101
  6
Continuous
 62
     7
370
    30
100
AcDbLine
 10
543.7300035664982
 20
1.947248066335646
 30
0.0
 11
535.8308536914927
 21
1.638068986446683
 31
0.0
  0
LINE
  5
38F
330
1F
100
AcDbEntity
  8
101
  6
Continuous
 62
     7
370
    30
100
AcDbLine
 10
554.4013742328008
 20
1.872983885899771
 30
0.0
 11
543.7300035664982
 21
1.947248066335646
 31
0.0
  0
LINE
  5
390
330
1F
100
AcDbEntity
  8
101
  6
Continuous
 62
     7
370
    30
100
AcDbLine
 10
562.153723177374
 20
0.9637016358959727
 30
0.0
 11
554.4013742328008
 21
1.872983885899771
 31
0.0
  0
LINE
  5
391
330
1F
100
AcDbEntity
  8
101
  6
Continuous
 62
     7
370
    30
100
AcDbLine
 10
569.4135518404179
 20
-0.4425084627411593
 30
0.0
 11
562.153723177374
 21
0.9637016358959727
 31
0.0
  0
LINE
  5
392
330
1F
100
AcDbEntity
  8
101
  6
Continuous
 62
     7
370
    30
100
AcDbLine
 10
571.1700464705805
 20
-1.766664405404413
 30
0.0
 11
567.1629592077674
 21
-2.54856367585046
 31
0.0
  0
LINE
  5
393
330
1F
100
AcDbEntity
  8
101
  6
Continuous
 62
     7
370
    30
100
AcDbLine
 10
571.2801469184047
 20
-0.8528179749720266
 30
0.0
 11
571.1700464705805
 21
-1.766664405404413
 31
0.0
  0
LINE
  5
394
330
1F
100
AcDbEntity
  8
101
  6
Continuous
 62
     7
370
    30
100
AcDbLine
 10
571.7863181787299
 20
1.706831684813437
 30
0.0
 11
571.2801469184047
 21
-0.8528179749720266
 31
0.0
  0
LINE
  5
395
330
1F
100
AcDbEntity
  8
101
  6
Continuous
 62
     7
370
    30
100
AcDbLine
 10
573.2271831387852
 20
2.89299836715179
 30
0.0
 11
571.7863181787299
 21
1.706831684813437
 31
0.0
  0
LINE
  5
396
330
1F
100
AcDbEntity
  8
101
  6
Continuous
 62
     7
370
    30
100
AcDbLine
 10
573.6413083991104
 20
5.612076375571064
 30
0.0
 11
573.2271831387852
 21
2.89299836715179
 31
0.0
  0
LINE
  5
397
330
1F
100
AcDbEntity
  8
101
  6
Continuous
 62
     7
370
    30
100
AcDbLine
 10
574.6510152116113
 20
6.195030875570751
 30
0.0
 11
573.6413083991104
 21
5.612076375571064
 31
0.0
  0
LINE
  5
398
330
1F
100
AcDbEntity
  8
101
  6
Continuous
 62
     7
370
    30
100
AcDbLine
 10
576.8073955363435
 20
7.36916059269322
 30
0.0
 11
574.6510152116113
 21
6.195030875570751
 31
0.0
  0
LINE
  5
399
330
1F
100
AcDbEntity
  8
101
  6
Continuous
 62
     7
370
    30
100
AcDbLine
 10
576.263344619491
 20
8.18875842258592
 30
0.0
 11
576.8073955363435
 21
7.36916059269322
 31
0.0
  0
LINE
  5
39A
330
1F
100
AcDbEntity
  8
101
  6
Continuous
 62
     7
370
    30
100
AcDbLine
 10
571.5752025814488
 20
9.804312625574653
 30
0.0
 11
576.263344619491
 21
8.18875842258592
 31
0.0
  0
LINE
  5
39B
330
1F
100
AcDbEntity
  8
101
  6
Continuous
 62
     7
370
    30
100
AcDbLine
 10
565.9754177135138
 20
11.03524252829345
 30
0.0
 11
571.5752025814488
 21
9.804312625574653
 31
0.0
  0
LINE
  5
39C
330
1F
100
AcDbEntity
  8
101
  6
Continuous
 62
     7
370
    30
100
AcDbLine
 10
557.0374908075365
 20
11.54345804378306
 30
0.0
 11
565.9754177135138
 21
11.03524252829345
 31
0.0
  0
LINE
  5
39D
330
1F
100
AcDbEntity
  8
101
  6
Continuous
 62
     7
370
    30
100
AcDbLine
 10
549.653322496938
 20
11.81503072937983
 30
0.0
 11
557.0374908075365
 21
11.54345804378306
 31
0.0
  0
LINE
  5
39E
330
1F
100
AcDbEntity
  8
101
  6
Continuous
 62
     7
370
    30
100
AcDbLine
 10
543.1216371167718
 20
12.08278766688261
 30
0.0
 11
549.653322496938
 21
11.81503072937983
 31
0.0
  0
LINE
  5
39F
330
1F
100
AcDbEntity
  8
101
  6
Continuous
 62
     7
370
    30
100
AcDbLine
 10
535.2449471586186
 20
11.85743286987133
 30
0.0
 11
543.1216371167718
 21
12.08278766688261
 31
0.0
  0
LINE
  5
3A0
330
1F
100
AcDbEntity
  8
101
  6
Continuous
 62
     7
370
    30
100
AcDbLine
 10
527.8569639659516
 20
11.27652312503534
 30
0.0
 11
535.2449471586186
 21
11.85743286987133
 31
0.0
  0
LINE
  5
3A1
330
1F
100
AcDbEntity
  8
101
  6
Continuous
 62
     7
370
    30
100
AcDbLine
 10
522.5196659852458
 20
9.96644840275269
 30
0.0
 11
527.8569639659516
 21
11.27652312503534
 31
0.0
  0
LINE
  5
3A2
330
1F
100
AcDbEntity
  8
101
  6
Continuous
 62
     7
370
    30
100
AcDbLine
 10
520.5533951431217
 20
8.83122140275276
 30
0.0
 11
522.5196659852458
 21
9.96644840275269
 31
0.0
  0
LINE
  5
3A3
330
1F
100
AcDbEntity
  8
101
  6
Continuous
 62
     7
370
    30
100
AcDbLine
 10
521.8091465425824
 20
7.147104177211418
 30
0.0
 11
520.5533951431217
 21
8.83122140275276
 31
0.0
  0
LINE
  5
3A4
330
1F
100
AcDbEntity
  8
101
  6
Continuous
 62
     7
370
    30
100
AcDbLine
 10
523.485632137961
 20
6.697891947858011
 30
0.0
 11
521.8091465425824
 21
7.147104177211418
 31
0.0
  0
LINE
  5
3A5
330
1F
100
AcDbEntity
  8
101
  6
Continuous
 62
     7
370
    30
100
AcDbLine
 10
523.9929839382309
 20
5.573678852479247
 30
0.0
 11
523.485632137961
 21
6.697891947858011
 31
0.0
  0
LINE
  5
3A6
330
1F
100
AcDbEntity
  8
101
  6
Continuous
 62
     7
370
    30
100
AcDbLine
 10
524.7337532732844
 20
3.308810727477464
 30
0.0
 11
523.9929839382309
 21
5.573678852479247
 31
0.0
  0
LINE
  5
3A7
330
1F
100
AcDbEntity
  8
101
  6
Continuous
 62
     7
370
    30
100
AcDbLine
 10
525.4789275773661
 20
0.0544929723131418
 30
0.0
 11
524.7337532732844
 21
3.308810727477464
 31
0.0
  0
LINE
  5
3A8
330
1F
100
AcDbEntity
  8
101
  6
Continuous
 62
     7
370
    30
100
AcDbLine
 10
528.9321659852459
 20
-1.140327400782667
 30
0.0
 11
525.4789275773661
 21
0.0544929723131418
 31
0.0
  0
LINE
  5
3A9
330
1F
100
AcDbEntity
  8
101
  6
Continuous
 62
     7
370
    30
100
AcDbLine
 10
532.052310228179
 20
-2.740029756486479
 30
0.0
 11
528.9321659852459
 21
-1.140327400782667
 31
0.0
  0
LINE
  5
3AA
330
1F
100
AcDbEntity
  8
101
  6
Continuous
 62
     7
370
    30
100
AcDbLine
 10
530.0481583635024
 20
-0.4960089007828401
 30
0.0
 11
532.8119148236036
 21
-0.3964515094245371
 31
0.0
  0
LINE
  5
3AB
330
1F
100
AcDbEntity
  8
101
  6
Continuous
 62
     7
370
    30
100
AcDbLine
 10
528.9321659852459
 20
-1.140327400782667
 30
0.0
 11
530.0481583635024
 21
-0.4960089007828401
 31
0.0
  0
LINE
  5
3AC
330
1F
100
AcDbEntity
  8
101
  6
Continuous
 62
     7
370
    30
100
AcDbLine
 10
530.8130007629629
 20
-1.329846796431241
 30
0.0
 11
528.9321659852459
 21
-1.140327400782667
 31
0.0
  0
LINE
  5
3AD
330
1F
100
AcDbEntity
  8
101
  6
Continuous
 62
     7
370
    30
100
AcDbLine
 10
566.7159129203072
 20
-3.133696792633714
 30
0.0
 11
566.0673373277839
 21
-1.532962913834638
 31
0.0
  0
LINE
  5
3AE
330
1F
100
AcDbEntity
  8
101
  6
Continuous
 62
     7
370
    30
100
AcDbLine
 10
566.1110880904142
 20
-4.049745457580343
 30
0.0
 11
563.2041041999265
 21
-4.169247662471321
 31
0.0
  0
LINE
  5
3AF
330
1F
100
AcDbEntity
  8
101
  6
Continuous
 62
     7
370
    30
100
AcDbLine
 10
566.7159129203072
 20
-3.133696792633714
 30
0.0
 11
566.1110880904142
 21
-4.049745457580343
 31
0.0
  0
LINE
  5
3B0
330
1F
100
AcDbEntity
  8
101
  6
Continuous
 62
     7
370
    30
100
AcDbLine
 10
567.6845139151463
 20
-1.865908927957321
 30
0.0
 11
566.7159129203072
 21
-3.133696792633714
 31
0.0
  0
LINE
  5
3B1
330
1F
100
AcDbEntity
  8
101
  6
Continuous
 62
     7
370
    30
100
AcDbLine
 10
561.8946204306286
 20
-0.6738812423606078
 30
0.0
 11
567.6845139151463
 21
-1.865908927957321
 31
0.0
  0
LINE
  5
3B2
330
1F
100
AcDbEntity
  8
101
  6
Continuous
 62
     7
370
    30
100
AcDbLine
 10
554.0195431200301
 20
0.4479707731292137
 30
0.0
 11
561.8946204306286
 21
-0.6738812423606078
 31
0.0
  0
LINE
  5
3B3
330
1F
100
AcDbEntity
  8
101
  6
Continuous
 62
     7
370
    30
100
AcDbLine
 10
546.1039495787294
 20
0.4127249587257893
 30
0.0
 11
554.0195431200301
 21
0.4479707731292137
 31
0.0
  0
LINE
  5
3B4
330
1F
100
AcDbEntity
  8
101
  6
Continuous
 62
     7
370
    30
100
AcDbLine
 10
539.3005335336169
 20
0.1693152138903429
 30
0.0
 11
546.1039495787294
 21
0.4127249587257893
 31
0.0
  0
LINE
  5
3B5
330
1F
100
AcDbEntity
  8
101
  6
Continuous
 62
     7
370
    30
100
AcDbLine
 10
533.380281052911
 20
-0.1310526958919809
 30
0.0
 11
539.3005335336169
 21
0.1693152138903429
 31
0.0
  0
LINE
  5
3B6
330
1F
100
AcDbEntity
  8
101
  6
Continuous
 62
     7
370
    30
100
AcDbLine
 10
530.8130007629629
 20
-1.329846796431241
 30
0.0
 11
533.380281052911
 21
-0.1310526958919809
 31
0.0
  0
LINE
  5
3B7
330
1F
100
AcDbEntity
  8
101
  6
Continuous
 62
     7
370
    30
100
AcDbLine
 10
532.052310228179
 20
-2.740029756486479
 30
0.0
 11
530.8130007629629
 21
-1.329846796431241
 31
0.0
  0
LINE
  5
3B8
330
1F
100
AcDbEntity
  8
101
  6
Continuous
 62
     7
370
    30
100
AcDbLine
 10
535.2989963531807
 20
-3.699819081218834
 30
0.0
 11
532.052310228179
 21
-2.740029756486479
 31
0.0
  0
LINE
  5
3B9
330
1F
100
AcDbEntity
  8
101
  6
Continuous
 62
     7
370
    30
100
AcDbLine
 10
551.327489708892
 20
-6.916529942090733
 30
0.0
 11
559.7789134499229
 21
-7.563915257850226
 31
0.0
  0
LINE
  5
3BA
330
1F
100
AcDbEntity
  8
101
  6
Continuous
 62
     7
370
    30
100
AcDbLine
 10
544.2501398982934
 20
-7.176382487196065
 30
0.0
 11
551.327489708892
 21
-6.916529942090733
 31
0.0
  0
LINE
  5
3BB
330
1F
100
AcDbEntity
  8
101
  6
Continuous
 62
     7
370
    30
100
AcDbLine
 10
537.7491360181273
 20
-6.961767466545666
 30
0.0
 11
544.2501398982934
 21
-7.176382487196065
 31
0.0
  0
LINE
  5
3BC
330
1F
100
AcDbEntity
  8
101
  6
Continuous
 62
     7
370
    30
100
AcDbLine
 10
539.6919247488294
 20
-9.09950225649402
 30
0.0
 11
533.3629745374216
 21
-9.919258931761874
 31
0.0
  0
LINE
  5
3BD
330
1F
100
AcDbEntity
  8
101
  6
Continuous
 62
     7
370
    30
100
AcDbLine
 10
549.5250521844297
 20
-8.94916057225339
 30
0.0
 11
539.6919247488294
 21
-9.09950225649402
 31
0.0
  0
LINE
  5
3BE
330
1F
100
AcDbEntity
  8
101
  6
Continuous
 62
     7
370
    30
100
AcDbLine
 10
558.1441232591654
 20
-9.641467587742738
 30
0.0
 11
549.5250521844297
 21
-8.94916057225339
 31
0.0
  0
LINE
  5
3BF
330
1F
100
AcDbEntity
  8
101
  6
Continuous
 62
     7
370
    30
100
AcDbLine
 10
565.6718672050873
 20
-11.38899256844854
 30
0.0
 11
558.1441232591654
 21
-9.641467587742738
 31
0.0
  0
LINE
  5
3C0
330
1F
100
AcDbEntity
  8
101
  6
Continuous
 62
     7
370
    30
100
AcDbLine
 10
528.4195868311672
 20
-34.73887826301791
 30
0.0
 11
529.3805575618693
 21
-35.17605439318061
 31
0.0
  0
LINE
  5
3C1
330
1F
100
AcDbEntity
  8
101
  6
Continuous
 62
     7
370
    30
100
AcDbLine
 10
528.9964806520945
 20
-10.45626967143664
 30
0.0
 11
528.4195868311672
 21
-34.73887826301791
 31
0.0
  0
LINE
  5
3C2
330
1F
100
AcDbEntity
  8
101
  6
Continuous
 62
     7
370
    30
100
AcDbLine
 10
533.1744785683933
 20
-8.610954336383315
 30
0.0
 11
528.9964806520945
 21
-10.45626967143664
 31
0.0
  0
LINE
  5
3C3
330
1F
100
AcDbEntity
  8
101
  6
Continuous
 62
     7
370
    30
100
AcDbLine
 10
534.3436128635024
 20
-7.935954336383134
 30
0.0
 11
533.1744785683933
 21
-8.610954336383315
 31
0.0
  0
LINE
  5
3C4
330
1F
100
AcDbEntity
  8
101
  6
Continuous
 62
     7
370
    30
100
AcDbLine
 10
536.1789354885042
 20
-6.451190371166945
 30
0.0
 11
534.3436128635024
 21
-7.935954336383134
 31
0.0
  0
LINE
  5
3C5
330
1F
100
AcDbEntity
  8
101
  6
Continuous
 62
     7
370
    30
100
AcDbLine
 10
535.2989963531807
 20
-3.699819081218834
 30
0.0
 11
536.1789354885042
 21
-6.451190371166945
 31
0.0
  0
LINE
  5
3C6
330
1F
100
AcDbEntity
  8
101
  6
Continuous
 62
     7
370
    30
100
AcDbLine
 10
537.3797734781828
 20
-2.640194780949173
 30
0.0
 11
535.2989963531807
 21
-3.699819081218834
 31
0.0
  0
LINE
  5
3C7
330
1F
100
AcDbEntity
  8
101
  6
Continuous
 62
     7
370
    30
100
AcDbLine
 10
543.0425349936722
 20
-2.63020343692267
 30
0.0
 11
537.3797734781828
 21
-2.640194780949173
 31
0.0
  0
LINE
  5
3C8
330
1F
100
AcDbEntity
  8
101
  6
Continuous
 62
     7
370
    30
100
AcDbLine
 10
550.9581271689475
 20
-2.59495725649424
 30
0.0
 11
543.0425349936722
 21
-2.63020343692267
 31
0.0
  0
LINE
  5
3C9
330
1F
100
AcDbEntity
  8
101
  6
Continuous
 62
     7
370
    30
100
AcDbLine
 10
561.6339036703035
 20
-3.658670567092656
 30
0.0
 11
550.9581271689475
 21
-2.59495725649424
 31
0.0
  0
LINE
  5
3CA
330
1F
100
AcDbEntity
  8
101
  6
Continuous
 62
     7
370
    30
100
AcDbLine
 10
563.2041041999265
 20
-4.169247662471321
 30
0.0
 11
561.6339036703035
 21
-3.658670567092656
 31
0.0
  0
LINE
  5
3CB
330
1F
100
AcDbEntity
  8
101
  6
Continuous
 62
     7
370
    30
100
AcDbLine
 10
561.4586243404104
 20
-5.318713862201662
 30
0.0
 11
563.2041041999265
 21
-4.169247662471321
 31
0.0
  0
LINE
  5
3CC
330
1F
100
AcDbEntity
  8
101
  6
Continuous
 62
     7
370
    30
100
AcDbLine
 10
562.456884274655
 20
-7.293206787473139
 30
0.0
 11
561.4586243404104
 21
-5.318713862201662
 31
0.0
  0
LINE
  5
3CD
330
1F
100
AcDbEntity
  8
101
  6
Continuous
 62
     7
370
    30
100
AcDbLine
 10
565.0329767347105
 20
-8.073311813284022
 30
0.0
 11
562.456884274655
 21
-7.293206787473139
 31
0.0
  0
LINE
  5
3CE
330
1F
100
AcDbEntity
  8
101
  6
Continuous
 62
     7
370
    30
100
AcDbLine
 10
567.8096019950355
 20
-9.446203837746566
 30
0.0
 11
565.0329767347105
 21
-8.073311813284022
 31
0.0
  0
LINE
  5
3CF
330
1F
100
AcDbEntity
  8
101
  6
Continuous
 62
     7
370
    30
100
AcDbLine
 10
568.2309689743778
 20
-35.70330485459942
 30
0.0
 11
567.8096019950355
 21
-9.446203837746566
 31
0.0
  0
LINE
  5
3D0
330
1F
100
AcDbEntity
  8
101
  6
Continuous
 62
     7
370
    30
100
AcDbLine
 10
568.2309689743778
 20
-35.70330485459942
 30
0.0
 11
567.1813368841599
 21
-39.28528874508731
 31
0.0
  0
LINE
  5
3D1
330
1F
100
AcDbEntity
  8
101
  6
Continuous
 62
     7
370
    30
100
AcDbLine
 10
562.2778322591581
 20
-35.45580559943494
 30
0.0
 11
568.2309689743778
 21
-35.70330485459942
 31
0.0
  0
LINE
  5
3D2
330
1F
100
AcDbEntity
  8
101
  6
Continuous
 62
     7
370
    30
100
AcDbLine
 10
554.0389792836131
 20
-34.68569364970114
 30
0.0
 11
562.2778322591581
 21
-35.45580559943494
 31
0.0
  0
LINE
  5
3D3
330
1F
100
AcDbEntity
  8
101
  6
Continuous
 62
     7
370
    30
100
AcDbLine
 10
543.3391297178501
 20
-35.05301056845576
 30
0.0
 11
554.0389792836131
 21
-34.68569364970114
 31
0.0
  0
LINE
  5
3D4
330
1F
100
AcDbEntity
  8
101
  6
Continuous
 62
     7
370
    30
100
AcDbLine
 10
534.9370330116031
 20
-35.22742618312907
 30
0.0
 11
543.3391297178501
 21
-35.05301056845576
 31
0.0
  0
LINE
  5
3D5
330
1F
100
AcDbEntity
  8
101
  6
Continuous
 62
     7
370
    30
100
AcDbLine
 10
529.3805575618693
 20
-35.17605439318061
 30
0.0
 11
534.9370330116031
 21
-35.22742618312907
 31
0.0
  0
LINE
  5
3D6
330
1F
100
AcDbEntity
  8
101
  6
Continuous
 62
     7
370
    30
100
AcDbLine
 10
528.4283985012744
 20
-36.71777652334333
 30
0.0
 11
529.3805575618693
 21
-35.17605439318061
 31
0.0
  0
LINE
  5
3D7
330
1F
100
AcDbEntity
  8
101
  6
Continuous
 62
     7
370
    30
100
AcDbLine
 10
529.5165012010045
 20
-38.35697168312902
 30
0.0
 11
528.4283985012744
 21
-36.71777652334333
 31
0.0
  0
LINE
  5
3D8
330
1F
100
AcDbEntity
  8
101
  6
Continuous
 62
     7
370
    30
100
AcDbLine
 10
505.0059947147146
 20
-218.3126191296284
 30
0.0
 11
507.7673587147145
 21
-223.0954418758198
 31
0.0
  0
LINE
  5
3D9
330
1F
100
AcDbEntity
  8
101
  6
Continuous
 62
     7
370
    30
100
AcDbLine
 10
501.3241767147146
 20
-211.9355232894069
 30
0.0
 11
505.0059947147146
 21
-218.3126191296284
 31
0.0
  0
LINE
  5
3DA
330
1F
100
AcDbEntity
  8
101
  6
Continuous
 62
     7
370
    30
100
AcDbLine
 10
497.9806534324993
 20
-203.6625530883204
 30
0.0
 11
501.3241767147146
 21
-211.9355232894069
 31
0.0
  0
LINE
  5
3DB
330
1F
100
AcDbEntity
  8
101
  6
Continuous
 62
     7
370
    30
100
AcDbLine
 10
492.7788261528799
 20
-187.5345419478218
 30
0.0
 11
497.9806534324993
 21
-203.6625530883204
 31
0.0
  0
LINE
  5
3DC
330
1F
100
AcDbEntity
  8
101
  6
Continuous
 62
     7
370
    30
100
AcDbLine
 10
488.6606952379371
 20
-172.0562759709209
 30
0.0
 11
492.7788261528799
 21
-187.5345419478218
 31
0.0
  0
LINE
  5
3DD
330
1F
100
AcDbEntity
  8
101
  6
Continuous
 62
     7
370
    30
100
AcDbLine
 10
484.5205365137518
 20
-151.6307647092323
 30
0.0
 11
488.6606952379371
 21
-172.0562759709209
 31
0.0
  0
LINE
  5
3DE
330
1F
100
AcDbEntity
  8
101
  6
Continuous
 62
     7
370
    30
100
AcDbLine
 10
482.7198274197291
 20
-133.5391170687336
 30
0.0
 11
484.5205365137518
 21
-151.6307647092323
 31
0.0
  0
LINE
  5
3DF
330
1F
100
AcDbEntity
  8
101
  6
Continuous
 62
     7
370
    30
100
AcDbLine
 10
481.2555947651117
 20
-119.2211737168346
 30
0.0
 11
482.7198274197291
 21
-133.5391170687336
 31
0.0
  0
LINE
  5
3E0
330
1F
100
AcDbEntity
  8
101
  6
Continuous
 62
     7
370
    30
100
AcDbLine
 10
482.2479528656584
 20
-102.776352366284
 30
0.0
 11
481.2555947651117
 21
-119.2211737168346
 31
0.0
  0
LINE
  5
3E1
330
1F
100
AcDbEntity
  8
101
  6
Continuous
 62
     7
370
    30
100
AcDbLine
 10
484.3668851414731
 20
-93.19190472579254
 30
0.0
 11
482.2479528656584
 21
-102.776352366284
 31
0.0
  0
LINE
  5
3E2
330
1F
100
AcDbEntity
  8
101
  6
Continuous
 62
     7
370
    30
100
AcDbLine
 10
487.7941206466411
 20
-83.41896075024775
 30
0.0
 11
484.3668851414731
 21
-93.19190472579254
 31
0.0
  0
LINE
  5
3E3
330
1F
100
AcDbEntity
  8
101
  6
Continuous
 62
     7
370
    30
100
AcDbLine
 10
493.4128246776203
 20
-73.51447760459556
 30
0.0
 11
487.7941206466411
 21
-83.41896075024775
 31
0.0
  0
LINE
  5
3E4
330
1F
100
AcDbEntity
  8
101
  6
Continuous
 62
     7
370
    30
100
AcDbLine
 10
499.7273764778973
 20
-66.04251214970111
 30
0.0
 11
493.4128246776203
 21
-73.51447760459556
 31
0.0
  0
LINE
  5
3E5
330
1F
100
AcDbEntity
  8
101
  6
Continuous
 62
     7
370
    30
100
AcDbLine
 10
505.9729340140372
 20
-60.16922512388976
 30
0.0
 11
499.7273764778973
 21
-66.04251214970111
 31
0.0
  0
LINE
  5
3E6
330
1F
100
AcDbEntity
  8
101
  6
Continuous
 62
     7
370
    30
100
AcDbLine
 10
515.8125115398554
 20
-54.63005532362024
 30
0.0
 11
505.9729340140372
 21
-60.16922512388976
 31
0.0
  0
LINE
  5
3E7
330
1F
100
AcDbEntity
  8
101
  6
Continuous
 62
     7
370
    30
100
AcDbLine
 10
523.3423002409419
 20
-49.99930392415956
 30
0.0
 11
515.8125115398554
 21
-54.63005532362024
 31
0.0
  0
LINE
  5
3E8
330
1F
100
AcDbEntity
  8
101
  6
Continuous
 62
     7
370
    30
100
AcDbLine
 10
527.5235225863242
 20
-45.45957546410426
 30
0.0
 11
523.3423002409419
 21
-49.99930392415956
 31
0.0
  0
LINE
  5
3E9
330
1F
100
AcDbEntity
  8
101
  6
Continuous
 62
     7
370
    30
100
AcDbLine
 10
529.6195619716513
 20
-40.99002217415602
 30
0.0
 11
527.5235225863242
 21
-45.45957546410426
 31
0.0
  0
LINE
  5
3EA
330
1F
100
AcDbEntity
  8
101
  6
Continuous
 62
     7
370
    30
100
AcDbLine
 10
529.5165012010045
 20
-38.35697168312902
 30
0.0
 11
529.6195619716513
 21
-40.99002217415602
 31
0.0
  0
LINE
  5
3EB
330
1F
100
AcDbEntity
  8
101
  6
Continuous
 62
     7
370
    30
100
AcDbLine
 10
536.6836942770891
 20
-37.76182223856301
 30
0.0
 11
529.5165012010045
 21
-38.35697168312902
 31
0.0
  0
LINE
  5
3EC
330
1F
100
AcDbEntity
  8
101
  6
Continuous
 62
     7
370
    30
100
AcDbLine
 10
545.3926086173107
 20
-38.11883235459226
 30
0.0
 11
536.6836942770891
 21
-37.76182223856301
 31
0.0
  0
LINE
  5
3ED
330
1F
100
AcDbEntity
  8
101
  6
Continuous
 62
     7
370
    30
100
AcDbLine
 10
556.3992756830736
 20
-38.28293893448847
 30
0.0
 11
545.3926086173107
 21
-38.11883235459226
 31
0.0
  0
LINE
  5
3EE
330
1F
100
AcDbEntity
  8
101
  6
Continuous
 62
     7
370
    30
100
AcDbLine
 10
567.1813368841599
 20
-39.28528874508731
 30
0.0
 11
556.3992756830736
 21
-38.28293893448847
 31
0.0
  0
LINE
  5
3EF
330
1F
100
AcDbEntity
  8
101
  6
Continuous
 62
     7
370
    30
100
AcDbLine
 10
568.564221118674
 20
-42.17142450025142
 30
0.0
 11
567.1813368841599
 21
-39.28528874508731
 31
0.0
  0
LINE
  5
3F0
330
1F
100
AcDbEntity
  8
101
  6
Continuous
 62
     7
370
    30
100
AcDbLine
 10
570.957403118674
 20
-46.31653731601074
 30
0.0
 11
568.564221118674
 21
-42.17142450025142
 31
0.0
  0
LINE
  5
3F1
330
1F
100
AcDbEntity
  8
101
  6
Continuous
 62
     7
370
    30
100
AcDbLine
 10
574.5975252140528
 20
-50.16686773096092
 30
0.0
 11
570.957403118674
 21
-46.31653731601074
 31
0.0
  0
LINE
  5
3F2
330
1F
100
AcDbEntity
  8
101
  6
Continuous
 62
     7
370
    30
100
AcDbLine
 10
579.4352605040009
 20
-52.90061704672019
 30
0.0
 11
574.5975252140528
 21
-50.16686773096092
 31
0.0
  0
LINE
  5
3F3
330
1F
100
AcDbEntity
  8
101
  6
Continuous
 62
     7
370
    30
100
AcDbLine
 10
586.6902507243815
 20
-58.34844671683476
 30
0.0
 11
579.4352605040009
 21
-52.90061704672019
 31
0.0
  0
LINE
  5
3F4
330
1F
100
AcDbEntity
  8
101
  6
Continuous
 62
     7
370
    30
100
AcDbLine
 10
592.0682229151389
 20
-62.75427579291926
 30
0.0
 11
586.6902507243815
 21
-58.34844671683476
 31
0.0
  0
LINE
  5
3F5
330
1F
100
AcDbEntity
  8
101
  6
Continuous
 62
     7
370
    30
100
AcDbLine
 10
597.6390964099782
 20
-69.45785772851954
 30
0.0
 11
592.0682229151389
 21
-62.75427579291926
 31
0.0
  0
LINE
  5
3F6
330
1F
100
AcDbEntity
  8
101
  6
Continuous
 62
     7
370
    30
100
AcDbLine
 10
601.5784058751943
 20
-75.54457786901105
 30
0.0
 11
597.6390964099782
 21
-69.45785772851954
 31
0.0
  0
LINE
  5
3F7
330
1F
100
AcDbEntity
  8
101
  6
Continuous
 62
     7
370
    30
100
AcDbLine
 10
607.1219806444923
 20
-86.37360502499186
 30
0.0
 11
601.5784058751943
 21
-75.54457786901105
 31
0.0
  0
LINE
  5
3F8
330
1F
100
AcDbEntity
  8
101
  6
Continuous
 62
     7
370
    30
100
AcDbLine
 10
609.8319728545439
 20
-96.71290322091735
 30
0.0
 11
607.1219806444923
 21
-86.37360502499186
 31
0.0
  0
LINE
  5
3F9
330
1F
100
AcDbEntity
  8
101
  6
Continuous
 62
     7
370
    30
100
AcDbLine
 10
610.7471573042704
 20
-107.379867186141
 30
0.0
 11
609.8319728545439
 21
-96.71290322091735
 31
0.0
  0
LINE
  5
3FA
330
1F
100
AcDbEntity
  8
101
  6
Continuous
 62
     7
370
    30
100
AcDbLine
 10
610.9512327243741
 20
-119.0242441823362
 30
0.0
 11
610.7471573042704
 21
-107.379867186141
 31
0.0
  0
LINE
  5
3FB
330
1F
100
AcDbEntity
  8
101
  6
Continuous
 62
     7
370
    30
100
AcDbLine
 10
609.538140427909
 20
-136.7039705290746
 30
0.0
 11
610.9512327243741
 21
-119.0242441823362
 31
0.0
  0
LINE
  5
3FC
330
1F
100
AcDbEntity
  8
101
  6
Continuous
 62
     7
370
    30
100
AcDbLine
 10
607.6121103222014
 20
-148.5861705290819
 30
0.0
 11
609.538140427909
 21
-136.7039705290746
 31
0.0
  0
LINE
  5
3FD
330
1F
100
AcDbEntity
  8
101
  6
Continuous
 62
     7
370
    30
100
AcDbLine
 10
604.6200066920316
 20
-163.7764210201163
 30
0.0
 11
607.6121103222014
 21
-148.5861705290819
 31
0.0
  0
LINE
  5
3FE
330
1F
100
AcDbEntity
  8
101
  6
Continuous
 62
     7
370
    30
100
AcDbLine
 10
600.0905859007273
 20
-179.0039620807185
 30
0.0
 11
604.6200066920316
 21
-163.7764210201163
 31
0.0
  0
LINE
  5
3FF
330
1F
100
AcDbEntity
  8
101
  6
Continuous
 62
     7
370
    30
100
AcDbLine
 10
594.4983168800696
 20
-194.845140007346
 30
0.0
 11
600.0905859007273
 21
-179.0039620807185
 31
0.0
  0
LINE
  5
400
330
1F
100
AcDbEntity
  8
101
  6
Continuous
 62
     7
370
    30
100
AcDbLine
 10
589.1547262884957
 20
-208.4170436078927
 30
0.0
 11
594.4983168800696
 21
-194.845140007346
 31
0.0
  0
LINE
  5
401
330
1F
100
AcDbEntity
  8
101
  6
Continuous
 62
     7
370
    30
100
AcDbLine
 10
581.7993540681078
 20
-221.4498912136002
 30
0.0
 11
589.1547262884957
 21
-208.4170436078927
 31
0.0
  0
LINE
  5
402
330
1F
100
AcDbEntity
  8
101
  6
Continuous
 62
     7
370
    30
100
AcDbLine
 10
575.2678261672912
 20
-228.0551350383327
 30
0.0
 11
581.7993540681078
 21
-221.4498912136002
 31
0.0
  0
LINE
  5
403
330
1F
100
AcDbEntity
  8
101
  6
Continuous
 62
     7
370
    30
100
AcDbLine
 10
567.8038073012584
 20
-233.7816211337109
 30
0.0
 11
575.2678261672912
 21
-228.0551350383327
 31
0.0
  0
LINE
  5
404
330
1F
100
AcDbEntity
  8
101
  6
Continuous
 62
     7
370
    30
100
AcDbLine
 10
561.3444993257136
 20
-236.0937715383326
 30
0.0
 11
567.8038073012584
 21
-233.7816211337109
 31
0.0
  0
LINE
  5
405
330
1F
100
AcDbEntity
  8
101
  6
Continuous
 62
     7
370
    30
100
AcDbLine
 10
556.81476307571
 20
-237.5753102084396
 30
0.0
 11
561.3444993257136
 21
-236.0937715383326
 31
0.0
  0
LINE
  5
406
330
1F
100
AcDbEntity
  8
101
  6
Continuous
 62
     7
370
    30
100
AcDbLine
 10
546.9860406091376
 20
-238.7151015228429
 30
0.0
 11
556.81476307571
 21
-237.5753102084396
 31
0.0
  0
LINE
  5
407
330
1F
100
AcDbEntity
  8
101
  6
Continuous
 62
     7
370
    30
100
AcDbLine
 10
534.4420572482657
 20
-238.5882850125141
 30
0.0
 11
546.9860406091376
 21
-238.7151015228429
 31
0.0
  0
LINE
  5
408
330
1F
100
AcDbEntity
  8
101
  6
Continuous
 62
     7
370
    30
100
AcDbLine
 10
521.6349969132046
 20
-234.0785318165887
 30
0.0
 11
534.4420572482657
 21
-238.5882850125141
 31
0.0
  0
LINE
  5
409
330
1F
100
AcDbEntity
  8
101
  6
Continuous
 62
     7
370
    30
100
AcDbLine
 10
513.7258548281478
 20
-228.724949880988
 30
0.0
 11
521.6349969132046
 21
-234.0785318165887
 31
0.0
  0
LINE
  5
40A
330
1F
100
AcDbEntity
  8
101
  6
Continuous
 62
     7
370
    30
100
AcDbLine
 10
507.7673587147145
 20
-223.0954418758198
 30
0.0
 11
513.7258548281478
 21
-228.724949880988
 31
0.0
  0
TEXT
  5
40B
330
1F
100
AcDbEntity
  8
100
  6
Continuous
 62
     7
370
     9
100
AcDbText
 10
391.2182741116746
 20
159.4162436548224
 30
0.0
 40
25.0
  1
イカツリソケット(IK-ST-G)
 41
0.7352941176470589
100
AcDbText
  0
TEXT
  5
40C
330
1F
100
AcDbEntity
  8
100
  6
Continuous
 62
     7
370
     9
100
AcDbText
 10
408.0010520096891
 20
124.1365903525571
 30
0.0
 40
25.0
  1
イカツリランプ(IK-RT-C)
 41
0.71875
100
AcDbText
  0
TEXT
  5
40D
330
1F
100
AcDbEntity
  8
100
  6
Continuous
 62
     7
370
     9
100
AcDbText
 10
444.079949238579
 20
-306.3127334133206
 30
0.0
 40
25.0
  1
松本船舶電機製作所
100
AcDbText
  0
VIEWPORT
  5
3B
330
1B
100
AcDbEntity
 67
     1
  8
0
100
AcDbViewport
 10
148.5
 20
105.0
 30
0.0
 40
297.0
 41
210.0
 68
     1
 69
     1
 12
148.5
 22
105.0
 13
0.0
 23
0.0
 14
0.5
 24
0.5
 15
0.5
 25
0.5
 16
0.0
 26
0.0
 36
1.0
 17
0.0
 27
0.0
 37
0.0
 42
50.0
 43
0.0
 44
0.0
 45
9.0
 50
0.0
 51
0.0
 72
   100
 90
   557152
  1

281
     0
 71
     1
 74
     0
110
0.0
120
0.0
130
0.0
111
1.0
121
0.0
131
0.0
112
0.0
122
1.0
132
0.0
 79
     0
146
0.0
170
     0
 61
     5
292
     1
282
     1
141
0.0
142
0.0
 63
   256
  0
ENDSEC
  0
SECTION
  2
OBJECTS
  0
DICTIONARY
  5
C
330
0
100
AcDbDictionary
281
     1
  3
ACAD_GROUP
350
D
  3
ACAD_LAYOUT
350
1A
  3
ACAD_MLEADERSTYLE
350
411
  3
ACAD_MLINESTYLE
350
17
  3
ACAD_PLOTSETTINGS
350
19
  3
ACAD_PLOTSTYLENAME
350
E
  3
ACAD_SCALELIST
350
9A
  3
ACAD_TABLESTYLE
350
410
  3
ACAD_VISUALSTYLE
350
2A
  3
AcDbVariableDictionary
350
40E
  0
DICTIONARY
  5
D
102
{ACAD_REACTORS
330
C
102
}
330
C
100
AcDbDictionary
281
     1
  0
DICTIONARY
  5
1A
102
{ACAD_REACTORS
330
C
102
}
330
C
100
AcDbDictionary
281
     1
  3
Layout1
350
1E
  3
Layout2
350
26
  3
Model
350
22
  0
DICTIONARY
  5
411
102
{ACAD_REACTORS
330
C
102
}
330
C
100
AcDbDictionary
281
     1
  0
DICTIONARY
  5
17
102
{ACAD_REACTORS
330
C
102
}
330
C
100
AcDbDictionary
281
     1
  3
Standard
350
18
  0
DICTIONARY
  5
19
102
{ACAD_REACTORS
330
C
102
}
330
C
100
AcDbDictionary
281
     1
  0
ACDBDICTIONARYWDFLT
  5
E
102
{ACAD_REACTORS
330
C
102
}
330
C
100
AcDbDictionary
281
     1
  3
Normal
350
F
100
AcDbDictionaryWithDefault
340
F
  0
DICTIONARY
  5
9A
102
{ACAD_REACTORS
330
C
102
}
330
C
100
AcDbDictionary
281
     1
  3
A0
350
9B
  3
A1
350
9C
  3
A2
350
9D
  3
A3
350
9E
  3
A4
350
9F
  3
A5
350
A0
  3
A6
350
A1
  3
A7
350
A2
  3
A8
350
A3
  3
A9
350
A4
  3
B0
350
A5
  3
B1
350
A6
  3
B2
350
A7
  3
B3
350
A8
  3
B4
350
A9
  3
B5
350
AA
  3
B6
350
AB
  3
B7
350
AC
  3
B8
350
AD
  3
B9
350
AE
  3
C0
350
AF
  3
C1
350
B0
  3
C2
350
B1
  3
C3
350
B2
  3
C4
350
B3
  3
C5
350
B4
  3
C6
350
B5
  3
C7
350
B6
  3
C8
350
B7
  3
C9
350
B8
  3
D0
350
B9
  3
D1
350
BA
  3
D2
350
BB
  0
DICTIONARY
  5
410
102
{ACAD_REACTORS
330
C
102
}
330
C
100
AcDbDictionary
281
     1
  0
DICTIONARY
  5
2A
102
{ACAD_REACTORS
330
C
102
}
330
C
100
AcDbDictionary
281
     1
  3
2dWireframe
350
2F
  3
3D Hidden
350
31
  3
3dWireframe
350
30
  3
Basic
350
32
  3
Brighten
350
36
  3
ColorChange
350
3A
  3
Conceptual
350
34
  3
Dim
350
35
  3
Facepattern
350
39
  3
Flat
350
2B
  3
FlatWithEdges
350
2C
  3
Gouraud
350
2D
  3
GouraudWithEdges
350
2E
  3
Linepattern
350
38
  3
Realistic
350
33
  3
Thicken
350
37
  0
DICTIONARY
  5
40E
102
{ACAD_REACTORS
330
C
102
}
330
C
100
AcDbDictionary
281
     1
  3
CANNOSCALE
350
40F
  0
LAYOUT
  5
1E
102
{ACAD_REACTORS
330
1A
102
}
330
1A
100
AcDbPlotSettings
  1

  2
none_device
  4

  6

 40
0.0
 41
0.0
 42
0.0
 43
0.0
 44
0.0
 45
0.0
 46
0.0
 47
0.0
 48
0.0
 49
0.0
140
0.0
141
0.0
142
1.0
143
1.0
 70
   688
 72
     0
 73
     0
 74
     5
  7

 75
    16
 76
     0
 77
     2
 78
   300
147
1.0
148
0.0
149
0.0
100
AcDbLayout
  1
Layout1
 70
     1
 71
     1
 10
0.0
 20
0.0
 11
297.0
 21
210.0
 12
0.0
 22
0.0
 32
0.0
 14
0.0
 24
0.0
 34
0.0
 15
297.0
 25
210.0
 35
0.0
146
0.0
 13
0.0
 23
0.0
 33
0.0
 16
1.0
 26
0.0
 36
0.0
 17
0.0
 27
1.0
 37
0.0
 76
     0
330
1B
331
3B
  0
LAYOUT
  5
26
102
{ACAD_REACTORS
330
1A
102
}
330
1A
100
AcDbPlotSettings
  1

  2
none_device
  4

  6

 40
0.0
 41
0.0
 42
0.0
 43
0.0
 44
0.0
 45
0.0
 46
0.0
 47
0.0
 48
0.0
 49
0.0
140
0.0
141
0.0
142
1.0
143
1.0
 70
   688
 72
     0
 73
     0
 74
     5
  7

 75
    16
 76
     0
 77
     2
 78
   300
147
1.0
148
0.0
149
0.0
100
AcDbLayout
  1
Layout2
 70
     1
 71
     2
 10
0.0
 20
0.0
 11
0.0
 21
0.0
 12
0.0
 22
0.0
 32
0.0
 14
0.0
 24
0.0
 34
0.0
 15
0.0
 25
0.0
 35
0.0
146
0.0
 13
0.0
 23
0.0
 33
0.0
 16
1.0
 26
0.0
 36
0.0
 17
0.0
 27
1.0
 37
0.0
 76
     0
330
23
  0
LAYOUT
  5
22
102
{ACAD_REACTORS
330
1A
102
}
330
1A
100
AcDbPlotSettings
  1

  2
none_device
  4

  6

 40
0.0
 41
0.0
 42
0.0
 43
0.0
 44
0.0
 45
0.0
 46
0.0
 47
0.0
 48
0.0
 49
0.0
140
0.0
141
0.0
142
1.0
143
1.0
 70
  1712
 72
     0
 73
     0
 74
     0
  7

 75
     0
 76
     0
 77
     2
 78
   300
147
1.0
148
0.0
149
0.0
100
AcDbLayout
  1
Model
 70
     1
 71
     0
 10
0.0
 20
0.0
 11
297.0
 21
210.0
 12
0.0
 22
0.0
 32
0.0
 14
0.0
 24
0.0
 34
0.0
 15
297.0
 25
210.0
 35
0.0
146
0.0
 13
0.0
 23
0.0
 33
0.0
 16
1.0
 26
0.0
 36
0.0
 17
0.0
 27
1.0
 37
0.0
 76
     0
330
1F
331
29
  0
MLINESTYLE
  5
18
102
{ACAD_REACTORS
330
17
102
}
330
17
100
AcDbMlineStyle
  2
Standard
 70
     0
  3

 62
   256
 51
90.0
 52
90.0
 71
     2
 49
0.5
 62
   256
  6
BYLAYER
 49
-0.5
 62
   256
  6
BYLAYER
  0
ACDBPLACEHOLDER
  5
F
102
{ACAD_REACTORS
330
E
102
}
330
E
  0
SCALE
  5
9B
102
{ACAD_REACTORS
330
9A
102
}
330
9A
100
AcDbScale
 70
     0
300
1:1
140
1.0
141
1.0
290
     1
  0
SCALE
  5
9C
102
{ACAD_REACTORS
330
9A
102
}
330
9A
100
AcDbScale
 70
     0
300
1:2
140
1.0
141
2.0
290
     0
  0
SCALE
  5
9D
102
{ACAD_REACTORS
330
9A
102
}
330
9A
100
AcDbScale
 70
     0
300
1:4
140
1.0
141
4.0
290
     0
  0
SCALE
  5
9E
102
{ACAD_REACTORS
330
9A
102
}
330
9A
100
AcDbScale
 70
     0
300
1:5
140
1.0
141
5.0
290
     0
  0
SCALE
  5
9F
102
{ACAD_REACTORS
330
9A
102
}
330
9A
100
AcDbScale
 70
     0
300
1:8
140
1.0
141
8.0
290
     0
  0
SCALE
  5
A0
102
{ACAD_REACTORS
330
9A
102
}
330
9A
100
AcDbScale
 70
     0
300
1:10
140
1.0
141
10.0
290
     0
  0
SCALE
  5
A1
102
{ACAD_REACTORS
330
9A
102
}
330
9A
100
AcDbScale
 70
     0
300
1:16
140
1.0
141
16.0
290
     0
  0
SCALE
  5
A2
102
{ACAD_REACTORS
330
9A
102
}
330
9A
100
AcDbScale
 70
     0
300
1:20
140
1.0
141
20.0
290
     0
  0
SCALE
  5
A3
102
{ACAD_REACTORS
330
9A
102
}
330
9A
100
AcDbScale
 70
     0
300
1:30
140
1.0
141
30.0
290
     0
  0
SCALE
  5
A4
102
{ACAD_REACTORS
330
9A
102
}
330
9A
100
AcDbScale
 70
     0
300
1:40
140
1.0
141
40.0
290
     0
  0
SCALE
  5
A5
102
{ACAD_REACTORS
330
9A
102
}
330
9A
100
AcDbScale
 70
     0
300
1:50
140
1.0
141
50.0
290
     0
  0
SCALE
  5
A6
102
{ACAD_REACTORS
330
9A
102
}
330
9A
100
AcDbScale
 70
     0
300
1:100
140
1.0
141
100.0
290
     0
  0
SCALE
  5
A7
102
{ACAD_REACTORS
330
9A
102
}
330
9A
100
AcDbScale
 70
     0
300
2:1
140
2.0
141
1.0
290
     0
  0
SCALE
  5
A8
102
{ACAD_REACTORS
330
9A
102
}
330
9A
100
AcDbScale
 70
     0
300
4:1
140
4.0
141
1.0
290
     0
  0
SCALE
  5
A9
102
{ACAD_REACTORS
330
9A
102
}
330
9A
100
AcDbScale
 70
     0
300
8:1
140
8.0
141
1.0
290
     0
  0
SCALE
  5
AA
102
{ACAD_REACTORS
330
9A
102
}
330
9A
100
AcDbScale
 70
     0
300
10:1
140
10.0
141
1.0
290
     0
  0
SCALE
  5
AB
102
{ACAD_REACTORS
330
9A
102
}
330
9A
100
AcDbScale
 70
     0
300
100:1
140
100.0
141
1.0
290
     0
  0
SCALE
  5
AC
102
{ACAD_REACTORS
330
9A
102
}
330
9A
100
AcDbScale
 70
     0
300
1/128" = 1'-0"
140
0.0078125
141
12.0
290
     0
  0
SCALE
  5
AD
102
{ACAD_REACTORS
330
9A
102
}
330
9A
100
AcDbScale
 70
     0
300
1/64" = 1'-0"
140
0.015625
141
12.0
290
     0
  0
SCALE
  5
AE
102
{ACAD_REACTORS
330
9A
102
}
330
9A
100
AcDbScale
 70
     0
300
1/32" = 1'-0"
140
0.03125
141
12.0
290
     0
  0
SCALE
  5
AF
102
{ACAD_REACTORS
330
9A
102
}
330
9A
100
AcDbScale
 70
     0
300
1/16" = 1'-0"
140
0.0625
141
12.0
290
     0
  0
SCALE
  5
B0
102
{ACAD_REACTORS
330
9A
102
}
330
9A
100
AcDbScale
 70
     0
300
3/32" = 1'-0"
140
0.09375
141
12.0
290
     0
  0
SCALE
  5
B1
102
{ACAD_REACTORS
330
9A
102
}
330
9A
100
AcDbScale
 70
     0
300
1/8" = 1'-0"
140
0.125
141
12.0
290
     0
  0
SCALE
  5
B2
102
{ACAD_REACTORS
330
9A
102
}
330
9A
100
AcDbScale
 70
     0
300
3/16" = 1'-0"
140
0.1875
141
12.0
290
     0
  0
SCALE
  5
B3
102
{ACAD_REACTORS
330
9A
102
}
330
9A
100
AcDbScale
 70
     0
300
1/4" = 1'-0"
140
0.25
141
12.0
290
     0
  0
SCALE
  5
B4
102
{ACAD_REACTORS
330
9A
102
}
330
9A
100
AcDbScale
 70
     0
300
3/8" = 1'-0"
140
0.375
141
12.0
290
     0
  0
SCALE
  5
B5
102
{ACAD_REACTORS
330
9A
102
}
330
9A
100
AcDbScale
 70
     0
300
1/2" = 1'-0"
140
0.5
141
12.0
290
     0
  0
SCALE
  5
B6
102
{ACAD_REACTORS
330
9A
102
}
330
9A
100
AcDbScale
 70
     0
300
3/4" = 1'-0"
140
0.75
141
12.0
290
     0
  0
SCALE
  5
B7
102
{ACAD_REACTORS
330
9A
102
}
330
9A
100
AcDbScale
 70
     0
300
1" = 1'-0"
140
1.0
141
12.0
290
     0
  0
SCALE
  5
B8
102
{ACAD_REACTORS
330
9A
102
}
330
9A
100
AcDbScale
 70
     0
300
1-1/2" = 1'-0"
140
1.5
141
12.0
290
     0
  0
SCALE
  5
B9
102
{ACAD_REACTORS
330
9A
102
}
330
9A
100
AcDbScale
 70
     0
300
3" = 1'-0"
140
3.0
141
12.0
290
     0
  0
SCALE
  5
BA
102
{ACAD_REACTORS
330
9A
102
}
330
9A
100
AcDbScale
 70
     0
300
6" = 1'-0"
140
6.0
141
12.0
290
     0
  0
SCALE
  5
BB
102
{ACAD_REACTORS
330
9A
102
}
330
9A
100
AcDbScale
 70
     0
300
1'-0" = 1'-0"
140
12.0
141
12.0
290
     0
  0
VISUALSTYLE
  5
2F
102
{ACAD_REACTORS
330
2A
102
}
330
2A
100
AcDbVisualStyle
  2
2dWireframe
 70
     4
 71
     0
 72
     2
 73
     0
 90
        0
 40
-0.6
 41
-30.0
 62
     5
 63
     7
421
 16777215
 74
     1
 91
        4
 64
     7
 65
   257
 75
     1
175
     1
 42
1.0
 92
        0
 66
   257
 43
1.0
 76
     1
 77
     6
 78
     2
 67
     7
 79
     5
170
     0
171
     0
290
     0
174
     0
 93
        1
 44
0.0
173
     0
291
     0
 45
0.0
  0
VISUALSTYLE
  5
31
102
{ACAD_REACTORS
330
2A
102
}
330
2A
100
AcDbVisualStyle
  2
3D Hidden
 70
     6
 71
     1
 72
     2
 73
     2
 90
        0
 40
-0.6
 41
-30.0
 62
     5
 63
     7
421
 16777215
 74
     2
 91
        2
 64
     7
 65
   257
 75
     2
175
     1
 42
40.0
 92
        0
 66
   257
 43
1.0
 76
     1
 77
     6
 78
     2
 67
     7
 79
     3
170
     0
171
     0
290
     0
174
     0
 93
        1
 44
0.0
173
     0
291
     0
 45
0.0
  0
VISUALSTYLE
  5
30
102
{ACAD_REACTORS
330
2A
102
}
330
2A
100
AcDbVisualStyle
  2
3dWireframe
 70
     5
 71
     0
 72
     2
 73
     0
 90
        0
 40
-0.6
 41
-30.0
 62
     5
 63
     7
421
 16777215
 74
     1
 91
        4
 64
     7
 65
   257
 75
     1
175
     1
 42
1.0
 92
        0
 66
   257
 43
1.0
 76
     1
 77
     6
 78
     2
 67
     7
 79
     5
170
     0
171
     0
290
     0
174
     0
 93
        1
 44
0.0
173
     0
291
     0
 45
0.0
  0
VISUALSTYLE
  5
32
102
{ACAD_REACTORS
330
2A
102
}
330
2A
100
AcDbVisualStyle
  2
Basic
 70
     7
 71
     1
 72
     0
 73
     1
 90
        0
 40
-0.6
 41
-30.0
 62
     5
 63
     7
421
 16777215
 74
     0
 91
        4
 64
     7
 65
   257
 75
     1
175
     1
 42
1.0
 92
        8
 66
     7
 43
1.0
 76
     1
 77
     6
 78
     2
 67
     7
 79
     5
170
     0
171
     0
290
     0
174
     0
 93
        1
 44
0.0
173
     0
291
     1
 45
0.0
  0
VISUALSTYLE
  5
36
102
{ACAD_REACTORS
330
2A
102
}
330
2A
100
AcDbVisualStyle
  2
Brighten
 70
    12
 71
     2
 72
     2
 73
     0
 90
        0
 40
-0.6
 41
-30.0
 62
     5
 63
     7
421
 16777215
 74
     1
 91
        4
 64
     7
 65
   257
 75
     1
175
     1
 42
1.0
 92
        8
 66
     7
 43
1.0
 76
     1
 77
     6
 78
     2
 67
     7
 79
     5
170
     0
171
     0
290
     0
174
     0
 93
        1
 44
50.0
173
     0
291
     1
 45
0.0
  0
VISUALSTYLE
  5
3A
102
{ACAD_REACTORS
330
2A
102
}
330
2A
100
AcDbVisualStyle
  2
ColorChange
 70
    16
 71
     2
 72
     2
 73
     3
 90
        0
 40
-0.6
 41
-30.0
 62
     5
 63
     8
421
  8421504
 74
     1
 91
        4
 64
     7
 65
   257
 75
     1
175
     1
 42
1.0
 92
        8
 66
     8
424
  8421504
 43
1.0
 76
     1
 77
     6
 78
     2
 67
     7
 79
     5
170
     0
171
     0
290
     0
174
     0
 93
        1
 44
0.0
173
     0
291
     1
 45
0.0
  0
VISUALSTYLE
  5
34
102
{ACAD_REACTORS
330
2A
102
}
330
2A
100
AcDbVisualStyle
  2
Conceptual
 70
     9
 71
     3
 72
     2
 73
     0
 90
        0
 40
-0.6
 41
-30.0
 62
     5
 63
     7
421
 16777215
 74
     2
 91
        2
 64
     7
 65
   257
 75
     1
175
     1
 42
40.0
 92
        8
 66
     7
 43
1.0
 76
     1
 77
     6
 78
     2
 67
     7
 79
     3
170
     0
171
     0
290
     0
174
     0
 93
        1
 44
0.0
173
     0
291
     0
 45
0.0
  0
VISUALSTYLE
  5
35
102
{ACAD_REACTORS
330
2A
102
}
330
2A
100
AcDbVisualStyle
  2
Dim
 70
    11
 71
     2
 72
     2
 73
     0
 90
        0
 40
-0.6
 41
-30.0
 62
     5
 63
     7
421
 16777215
 74
     1
 91
        4
 64
     7
 65
   257
 75
     1
175
     1
 42
1.0
 92
        8
 66
     7
 43
1.0
 76
     1
 77
     6
 78
     2
 67
     7
 79
     5
170
     0
171
     0
290
     0
174
     0
 93
        1
 44
-50.0
173
     0
291
     1
 45
0.0
  0
VISUALSTYLE
  5
39
102
{ACAD_REACTORS
330
2A
102
}
330
2A
100
AcDbVisualStyle
  2
Facepattern
 70
    15
 71
     2
 72
     2
 73
     0
 90
        0
 40
-0.6
 41
-30.0
 62
     5
 63
     7
421
 16777215
 74
     1
 91
        4
 64
     7
 65
   257
 75
     1
175
     1
 42
1.0
 92
        8
 66
     7
 43
1.0
 76
     1
 77
     6
 78
     2
 67
     7
 79
     5
170
     0
171
     0
290
     0
174
     0
 93
        1
 44
0.0
173
     0
291
     1
 45
0.0
  0
VISUALSTYLE
  5
2B
102
{ACAD_REACTORS
330
2A
102
}
330
2A
100
AcDbVisualStyle
  2
Flat
 70
     0
 71
     2
 72
     1
 73
     1
 90
        2
 40
-0.6
 41
30.0
 62
     5
 63
     7
421
 16777215
 74
     0
 91
        4
 64
     7
 65
   257
 75
     1
175
     1
 42
1.0
 92
        8
 66
     7
 43
1.0
 76
     1
 77
     6
 78
     2
 67
     7
 79
     5
170
     0
171
     0
290
     0
174
     0
 93
       13
 44
0.0
173
     0
291
     1
 45
0.0
  0
VISUALSTYLE
  5
2C
102
{ACAD_REACTORS
330
2A
102
}
330
2A
100
AcDbVisualStyle
  2
FlatWithEdges
 70
     1
 71
     2
 72
     1
 73
     1
 90
        2
 40
-0.6
 41
30.0
 62
     5
 63
     7
421
 16777215
 74
     1
 91
        4
 64
     7
 65
   257
 75
     1
175
     1
 42
1.0
 92
        0
 66
   257
 43
1.0
 76
     1
 77
     6
 78
     2
 67
     7
 79
     5
170
     0
171
     0
290
     0
174
     0
 93
       13
 44
0.0
173
     0
291
     1
 45
0.0
  0
VISUALSTYLE
  5
2D
102
{ACAD_REACTORS
330
2A
102
}
330
2A
100
AcDbVisualStyle
  2
Gouraud
 70
     2
 71
     2
 72
     2
 73
     1
 90
        2
 40
-0.6
 41
30.0
 62
     5
 63
     7
421
 16777215
 74
     0
 91
        4
 64
     7
 65
   257
 75
     1
175
     1
 42
1.0
 92
        0
 66
     7
 43
1.0
 76
     1
 77
     6
 78
     2
 67
     7
 79
     5
170
     0
171
     0
290
     0
174
     0
 93
       13
 44
0.0
173
     0
291
     1
 45
0.0
  0
VISUALSTYLE
  5
2E
102
{ACAD_REACTORS
330
2A
102
}
330
2A
100
AcDbVisualStyle
  2
GouraudWithEdges
 70
     3
 71
     2
 72
     2
 73
     1
 90
        2
 40
-0.6
 41
30.0
 62
     5
 63
     7
421
 16777215
 74
     1
 91
        4
 64
     7
 65
   257
 75
     1
175
     1
 42
1.0
 92
        0
 66
   257
 43
1.0
 76
     1
 77
     6
 78
     2
 67
     7
 79
     5
170
     0
171
     0
290
     0
174
     0
 93
       13
 44
0.0
173
     0
291
     1
 45
0.0
  0
VISUALSTYLE
  5
38
102
{ACAD_REACTORS
330
2A
102
}
330
2A
100
AcDbVisualStyle
  2
Linepattern
 70
    14
 71
     2
 72
     2
 73
     0
 90
        0
 40
-0.6
 41
-30.0
 62
     5
 63
     7
421
 16777215
 74
     1
 91
        4
 64
     7
 65
   257
 75
     7
175
     7
 42
1.0
 92
        8
 66
     7
 43
1.0
 76
     1
 77
     6
 78
     2
 67
     7
 79
     5
170
     0
171
     0
290
     0
174
     0
 93
        1
 44
0.0
173
     0
291
     1
 45
0.0
  0
VISUALSTYLE
  5
33
102
{ACAD_REACTORS
330
2A
102
}
330
2A
100
AcDbVisualStyle
  2
Realistic
 70
     8
 71
     2
 72
     2
 73
     0
 90
        0
 40
-0.6
 41
-30.0
 62
     5
 63
     7
421
 16777215
 74
     1
 91
        0
 64
     7
 65
   257
 75
     1
175
     1
 42
1.0
 92
        8
 66
     8
424
  7895160
 43
1.0
 76
     1
 77
     6
 78
     2
 67
     7
 79
     5
170
     0
171
     0
290
     0
174
     0
 93
       13
 44
0.0
173
     0
291
     0
 45
0.0
  0
VISUALSTYLE
  5
37
102
{ACAD_REACTORS
330
2A
102
}
330
2A
100
AcDbVisualStyle
  2
Thicken
 70
    13
 71
     2
 72
     2
 73
     0
 90
        0
 40
-0.6
 41
-30.0
 62
     5
 63
     7
421
 16777215
 74
     1
 91
        4
 64
     7
 65
   257
 75
     1
175
     1
 42
1.0
 92
       12
 66
     7
 43
1.0
 76
     1
 77
     6
 78
     2
 67
     7
 79
     5
170
     0
171
     0
290
     0
174
     0
 93
        1
 44
0.0
173
     0
291
     1
 45
0.0
  0
DICTIONARYVAR
  5
40F
102
{ACAD_REACTORS
330
40E
102
}
330
40E
100
DictionaryVariables
280
     0
  1
1:1
  0
ENDSEC
  0
EOF
