  0
SECTION
  2
HEADER
  9
$ACADVER
  1
AC1032
  9
$ACADMAINTVER
 90
       55
  9
$DWGCODEPAGE
  3
ANSI_932
  9
$LASTSAVEDBY
  1
client05
  9
$REQUIREDVERSIONS
160
                 0
  9
$INSBASE
 10
0.0
 20
0.0
 30
0.0
  9
$EXTMIN
 10
-42.28352316971527
 20
-140.9748825528775
 30
0.0
  9
$EXTMAX
 10
183.2122813034843
 20
236.6887980932925
 30
0.0
  9
$LIMMIN
 10
0.0
 20
0.0
  9
$LIMMAX
 10
297.0
 20
210.0
  9
$ORTHOMODE
 70
     0
  9
$REGENMODE
 70
     1
  9
$FILLMODE
 70
     1
  9
$QTEXTMODE
 70
     0
  9
$MIRRTEXT
 70
     1
  9
$LTSCALE
 40
0.25
  9
$ATTMODE
 70
     1
  9
$TEXTSIZE
 40
5.0
  9
$TRACEWID
 40
0.05
  9
$TEXTSTYLE
  7
Standard
  9
$CLAYER
  8
0
  9
$CELTYPE
  6
ByLayer
  9
$CECOLOR
 62
   256
  9
$CELTSCALE
 40
1.0
  9
$DISPSILH
 70
     0
  9
$DIMSCALE
 40
1.0
  9
$DIMASZ
 40
4.0
  9
$DIMEXO
 40
2.0
  9
$DIMDLI
 40
10.0
  9
$DIMRND
 40
0.0
  9
$DIMDLE
 40
0.0
  9
$DIMEXE
 40
2.0
  9
$DIMTP
 40
0.0
  9
$DIMTM
 40
0.0
  9
$DIMTXT
 40
3.5
  9
$DIMCEN
 40
0.09
  9
$DIMTSZ
 40
0.0
  9
$DIMTOL
 70
     0
  9
$DIMLIM
 70
     0
  9
$DIMTIH
 70
     0
  9
$DIMTOH
 70
     0
  9
$DIMSE1
 70
     0
  9
$DIMSE2
 70
     0
  9
$DIMTAD
 70
     3
  9
$DIMZIN
 70
     8
  9
$DIMBLK
  1

  9
$DIMASO
 70
     1
  9
$DIMSHO
 70
     1
  9
$DIMPOST
  1

  9
$DIMAPOST
  1

  9
$DIMALT
 70
     0
  9
$DIMALTD
 70
     2
  9
$DIMALTF
 40
25.4
  9
$DIMLFAC
 40
1.0
  9
$DIMTOFL
 70
     1
  9
$DIMTVP
 40
0.7
  9
$DIMTIX
 70
     0
  9
$DIMSOXD
 70
     0
  9
$DIMSAH
 70
     0
  9
$DIMBLK1
  1

  9
$DIMBLK2
  1

  9
$DIMSTYLE
  2
Standard
  9
$DIMCLRD
 70
     0
  9
$DIMCLRE
 70
     0
  9
$DIMCLRT
 70
     0
  9
$DIMTFAC
 40
0.5
  9
$DIMGAP
 40
0.09
  9
$DIMJUST
 70
     0
  9
$DIMSD1
 70
     0
  9
$DIMSD2
 70
     0
  9
$DIMTOLJ
 70
     1
  9
$DIMTZIN
 70
     8
  9
$DIMALTZ
 70
     0
  9
$DIMALTTZ
 70
     0
  9
$DIMUPT
 70
     1
  9
$DIMDEC
 70
     2
  9
$DIMTDEC
 70
     4
  9
$DIMALTU
 70
     2
  9
$DIMALTTD
 70
     2
  9
$DIMTXSTY
  7
Standard
  9
$DIMAUNIT
 70
     0
  9
$DIMADEC
 70
     0
  9
$DIMALTRND
 40
0.0
  9
$DIMAZIN
 70
     0
  9
$DIMDSEP
 70
    46
  9
$DIMATFIT
 70
     2
  9
$DIMFRAC
 70
     0
  9
$DIMLDRBLK
  1

  9
$DIMLUNIT
 70
     2
  9
$DIMLWD
 70
    -2
  9
$DIMLWE
 70
    -2
  9
$DIMTMOVE
 70
     2
  9
$DIMFXL
 40
1.0
  9
$DIMFXLON
 70
     0
  9
$DIMJOGANG
 40
0.7853981633974483
  9
$DIMTFILL
 70
     0
  9
$DIMTFILLCLR
 70
     0
  9
$DIMARCSYM
 70
     0
  9
$DIMLTYPE
  6

  9
$DIMLTEX1
  6

  9
$DIMLTEX2
  6

  9
$DIMTXTDIRECTION
 70
     0
  9
$LUNITS
 70
     2
  9
$LUPREC
 70
     4
  9
$SKETCHINC
 40
0.1
  9
$FILLETRAD
 40
0.5
  9
$AUNITS
 70
     0
  9
$AUPREC
 70
     0
  9
$MENU
  1
.
  9
$ELEVATION
 40
0.0
  9
$PELEVATION
 40
0.0
  9
$THICKNESS
 40
0.0
  9
$LIMCHECK
 70
     0
  9
$CHAMFERA
 40
0.0
  9
$CHAMFERB
 40
0.0
  9
$CHAMFERC
 40
0.0
  9
$CHAMFERD
 40
0.0
  9
$SKPOLY
 70
     0
  9
$TDCREATE
 40
2459374.925324074
  9
$TDUCREATE
 40
2459374.550324074
  9
$TDUPDATE
 40
2459374.550330116
  9
$TDUUPDATE
 40
2459374.175330116
  9
$TDINDWG
 40
0.0000000116
  9
$TDUSRTIMER
 40
0.0000000116
  9
$USRTIMER
 70
     1
  9
$ANGBASE
 50
0.0
  9
$ANGDIR
 70
     0
  9
$PDMODE
 70
     0
  9
$PDSIZE
 40
0.0
  9
$PLINEWID
 40
0.0
  9
$SPLFRAME
 70
     0
  9
$SPLINETYPE
 70
     6
  9
$SPLINESEGS
 70
     8
  9
$HANDSEED
  5
358
  9
$SURFTAB1
 70
     6
  9
$SURFTAB2
 70
     6
  9
$SURFTYPE
 70
     6
  9
$SURFU
 70
     6
  9
$SURFV
 70
     6
  9
$UCSBASE
  2

  9
$UCSNAME
  2

  9
$UCSORG
 10
0.0
 20
0.0
 30
0.0
  9
$UCSXDIR
 10
1.0
 20
0.0
 30
0.0
  9
$UCSYDIR
 10
0.0
 20
1.0
 30
0.0
  9
$UCSORTHOREF
  2

  9
$UCSORTHOVIEW
 70
     0
  9
$UCSORGTOP
 10
0.0
 20
0.0
 30
0.0
  9
$UCSORGBOTTOM
 10
0.0
 20
0.0
 30
0.0
  9
$UCSORGLEFT
 10
0.0
 20
0.0
 30
0.0
  9
$UCSORGRIGHT
 10
0.0
 20
0.0
 30
0.0
  9
$UCSORGFRONT
 10
0.0
 20
0.0
 30
0.0
  9
$UCSORGBACK
 10
0.0
 20
0.0
 30
0.0
  9
$PUCSBASE
  2

  9
$PUCSNAME
  2

  9
$PUCSORG
 10
0.0
 20
0.0
 30
0.0
  9
$PUCSXDIR
 10
1.0
 20
0.0
 30
0.0
  9
$PUCSYDIR
 10
0.0
 20
1.0
 30
0.0
  9
$PUCSORTHOREF
  2

  9
$PUCSORTHOVIEW
 70
     0
  9
$PUCSORGTOP
 10
0.0
 20
0.0
 30
0.0
  9
$PUCSORGBOTTOM
 10
0.0
 20
0.0
 30
0.0
  9
$PUCSORGLEFT
 10
0.0
 20
0.0
 30
0.0
  9
$PUCSORGRIGHT
 10
0.0
 20
0.0
 30
0.0
  9
$PUCSORGFRONT
 10
0.0
 20
0.0
 30
0.0
  9
$PUCSORGBACK
 10
0.0
 20
0.0
 30
0.0
  9
$USERI1
 70
     0
  9
$USERI2
 70
     0
  9
$USERI3
 70
     0
  9
$USERI4
 70
     0
  9
$USERI5
 70
     0
  9
$USERR1
 40
0.0
  9
$USERR2
 40
0.0
  9
$USERR3
 40
0.0
  9
$USERR4
 40
0.0
  9
$USERR5
 40
0.0
  9
$WORLDVIEW
 70
     1
  9
$SHADEDGE
 70
     3
  9
$SHADEDIF
 70
    70
  9
$TILEMODE
 70
     1
  9
$MAXACTVP
 70
    64
  9
$PINSBASE
 10
0.0
 20
0.0
 30
0.0
  9
$PLIMCHECK
 70
     0
  9
$PEXTMIN
 10
0.0
 20
0.0
 30
0.0
  9
$PEXTMAX
 10
297.0
 20
210.0
 30
0.0
  9
$PLIMMIN
 10
0.0
 20
0.0
  9
$PLIMMAX
 10
297.0
 20
210.0
  9
$UNITMODE
 70
     0
  9
$VISRETAIN
 70
     1
  9
$PLINEGEN
 70
     0
  9
$PSLTSCALE
 70
     1
  9
$TREEDEPTH
 70
  3020
  9
$CMLSTYLE
  2
Standard
  9
$CMLJUST
 70
     0
  9
$CMLSCALE
 40
1.0
  9
$PROXYGRAPHICS
 70
     1
  9
$MEASUREMENT
 70
     1
  9
$CELWEIGHT
370
    -1
  9
$ENDCAPS
280
     0
  9
$JOINSTYLE
280
     0
  9
$LWDISPLAY
290
     0
  9
$INSUNITS
 70
     4
  9
$HYPERLINKBASE
  1

  9
$STYLESHEET
  1

  9
$XEDIT
290
     1
  9
$CEPSNTYPE
380
     0
  9
$PSTYLEMODE
290
     1
  9
$FINGERPRINTGUID
  2
{37fede37-508d-4b40-a44f-aff365bb1f82}
  9
$VERSIONGUID
  2
{FAEB1C32-E019-11D5-929B-00C0DF256EC4}
  9
$EXTNAMES
290
     1
  9
$PSVPSCALE
 40
0.0
  9
$OLESTARTUP
290
     0
  9
$SORTENTS
280
   127
  9
$INDEXCTL
280
     0
  9
$HIDETEXT
280
     1
  9
$XCLIPFRAME
280
     2
  9
$HALOGAP
280
     0
  9
$OBSCOLOR
 70
   257
  9
$OBSLTYPE
280
     0
  9
$INTERSECTIONDISPLAY
280
     0
  9
$INTERSECTIONCOLOR
 70
   257
  9
$DIMASSOC
280
     1
  9
$PROJECTNAME
  1

  9
$CAMERADISPLAY
290
     0
  9
$LENSLENGTH
 40
50.0
  9
$CAMERAHEIGHT
 40
0.0
  9
$STEPSPERSEC
 40
2.0
  9
$STEPSIZE
 40
6.0
  9
$3DDWFPREC
 40
2.0
  9
$PSOLWIDTH
 40
0.25
  9
$PSOLHEIGHT
 40
4.0
  9
$LOFTANG1
 40
1.570796326794897
  9
$LOFTANG2
 40
1.570796326794897
  9
$LOFTMAG1
 40
0.0
  9
$LOFTMAG2
 40
0.0
  9
$LOFTPARAM
 70
     7
  9
$LOFTNORMALS
280
     1
  9
$LATITUDE
 40
37.795
  9
$LONGITUDE
 40
-122.394
  9
$NORTHDIRECTION
 40
0.0
  9
$TIMEZONE
 70
 -8000
  9
$LIGHTGLYPHDISPLAY
280
     1
  9
$TILEMODELIGHTSYNCH
280
     1
  9
$CMATERIAL
347
44
  9
$SOLIDHIST
280
     0
  9
$SHOWHIST
280
     1
  9
$DWFFRAME
280
     2
  9
$DGNFRAME
280
     2
  9
$REALWORLDSCALE
290
     1
  9
$INTERFERECOLOR
 62
   256
  9
$CSHADOW
280
     0
  9
$SHADOWPLANELOCATION
 40
0.0
  0
ENDSEC
  0
SECTION
  2
CLASSES
  0
CLASS
  1
ACDBDICTIONARYWDFLT
  2
AcDbDictionaryWithDefault
  3
ObjectDBX Classes
 90
        0
 91
        3
280
     0
281
     0
  0
CLASS
  1
VISUALSTYLE
  2
AcDbVisualStyle
  3
ObjectDBX Classes
 90
     4095
 91
        3
280
     0
281
     0
  0
CLASS
  1
MATERIAL
  2
AcDbMaterial
  3
ObjectDBX Classes
 90
     1153
 91
        3
280
     0
281
     0
  0
CLASS
  1
SCALE
  2
AcDbScale
  3
ObjectDBX Classes
 90
     1153
 91
        3
280
     0
281
     0
  0
CLASS
  1
TABLESTYLE
  2
AcDbTableStyle
  3
ObjectDBX Classes
 90
     4095
 91
        3
280
     0
281
     0
  0
CLASS
  1
MLEADERSTYLE
  2
AcDbMLeaderStyle
  3
ACDB_MLEADERSTYLE_CLASS
 90
     4095
 91
        3
280
     0
281
     0
  0
CLASS
  1
SUN
  2
AcDbSun
  3
SCENEOE
 90
     1153
 91
        3
280
     0
281
     0
  0
CLASS
  1
DICTIONARYVAR
  2
AcDbDictionaryVar
  3
ObjectDBX Classes
 90
        0
 91
        3
280
     0
281
     0
  0
CLASS
  1
CELLSTYLEMAP
  2
AcDbCellStyleMap
  3
ObjectDBX Classes
 90
     1152
 91
        3
280
     0
281
     0
  0
ENDSEC
  0
SECTION
  2
TABLES
  0
TABLE
  2
VPORT
  5
8
330
0
100
AcDbSymbolTable
 70
     1
  0
VPORT
  5
29
330
8
100
AcDbSymbolTableRecord
100
AcDbViewportTableRecord
  2
*Active
 70
     0
 10
0.0
 20
0.0
 11
1.0
 21
1.0
 12
10.42990654205607
 22
4.5
 13
0.0
 23
0.0
 14
0.5
 24
0.5
 15
0.5
 25
0.5
 16
0.0
 26
0.0
 36
1.0
 17
0.0
 27
0.0
 37
0.0
 40
9.0
 41
1.972972972850329
 42
50.0
 43
0.0
 44
0.0
 50
0.0
 51
0.0
 71
     0
 72
   100
 73
     1
 74
     3
 75
     0
 76
     0
 77
     0
 78
     0
281
     0
 65
     1
110
0.0
120
0.0
130
0.0
111
1.0
121
0.0
131
0.0
112
0.0
122
1.0
132
0.0
 79
     0
146
0.0
348
2F
 60
     3
 61
     5
292
     1
282
     1
141
0.0
142
0.0
 63
   250
361
6D
  0
ENDTAB
  0
TABLE
  2
LTYPE
  5
5
330
0
100
AcDbSymbolTable
 70
     9
  0
LTYPE
  5
14
330
5
100
AcDbSymbolTableRecord
100
AcDbLinetypeTableRecord
  2
ByBlock
 70
     0
  3

 72
    65
 73
     0
 40
0.0
  0
LTYPE
  5
15
330
5
100
AcDbSymbolTableRecord
100
AcDbLinetypeTableRecord
  2
ByLayer
 70
     0
  3

 72
    65
 73
     0
 40
0.0
  0
LTYPE
  5
16
330
5
100
AcDbSymbolTableRecord
100
AcDbLinetypeTableRecord
  2
Continuous
 70
     0
  3
Solid line
 72
    65
 73
     0
 40
0.0
  0
LTYPE
  5
BC
330
5
100
AcDbSymbolTableRecord
100
AcDbLinetypeTableRecord
  2
DOT
 70
     0
  3
DOT
 72
    65
 73
     2
 40
4.0
 49
6.0
 74
     0
 49
-2.0
 74
     0
  0
LTYPE
  5
BD
330
5
100
AcDbSymbolTableRecord
100
AcDbLinetypeTableRecord
  2
HIDDEN
 70
     0
  3
HIDDEN
 72
    65
 73
     2
 40
4.2
 49
8.4
 74
     0
 49
-4.2
 74
     0
  0
LTYPE
  5
BE
330
5
100
AcDbSymbolTableRecord
100
AcDbLinetypeTableRecord
  2
DASHDOT
 70
     0
  3
DASHDOT
 72
    65
 73
     4
 40
14.5
 49
30.0
 74
     0
 49
-9.0
 74
     0
 49
2.5
 74
     0
 49
-9.0
 74
     0
  0
LTYPE
  5
BF
330
5
100
AcDbSymbolTableRecord
100
AcDbLinetypeTableRecord
  2
PHANTOM
 70
     0
  3
PHANTOM
 72
    65
 73
     6
 40
12.0
 49
30.0
 74
     0
 49
-9.0
 74
     0
 49
2.5
 74
     0
 49
-5.0
 74
     0
 49
2.5
 74
     0
 49
-9.0
 74
     0
  0
LTYPE
  5
C0
330
5
100
AcDbSymbolTableRecord
100
AcDbLinetypeTableRecord
  2
ACAD_ISO14W100
 70
     0
  3
ACAD_ISO14W100
 72
    65
 73
     8
 40
1.5
 49
12.0
 74
     0
 49
-3.0
 74
     0
 49
0.5
 74
     0
 49
-3.0
 74
     0
 49
0.5
 74
     0
 49
-3.0
 74
     0
 49
0.5
 74
     0
 49
-3.0
 74
     0
  0
LTYPE
  5
C1
330
5
100
AcDbSymbolTableRecord
100
AcDbLinetypeTableRecord
  2
ACAD_ISO06W100
 70
     0
  3
ACAD_ISO06W100
 72
    65
 73
     8
 40
13.5
 49
24.0
 74
     0
 49
-3.0
 74
     0
 49
0.5
 74
     0
 49
-3.0
 74
     0
 49
0.5
 74
     0
 49
-3.0
 74
     0
 49
0.5
 74
     0
 49
-3.0
 74
     0
  0
LTYPE
  5
C2
330
5
100
AcDbSymbolTableRecord
100
AcDbLinetypeTableRecord
  2
ACAD_ISO11W100
 70
     0
  3
ACAD_ISO11W100
 72
    65
 73
     6
 40
15.5
 49
12.0
 74
     0
 49
-3.0
 74
     0
 49
12.0
 74
     0
 49
-3.0
 74
     0
 49
0.5
 74
     0
 49
-3.0
 74
     0
  0
LTYPE
  5
C3
330
5
100
AcDbSymbolTableRecord
100
AcDbLinetypeTableRecord
  2
ACAD_ISO13W100
 70
     0
  3
ACAD_ISO13W100
 72
    65
 73
     8
 40
13.0
 49
12.0
 74
     0
 49
-3.0
 74
     0
 49
12.0
 74
     0
 49
-3.0
 74
     0
 49
0.5
 74
     0
 49
-3.0
 74
     0
 49
0.5
 74
     0
 49
-3.0
 74
     0
  0
ENDTAB
  0
TABLE
  2
LAYER
  5
2
330
0
100
AcDbSymbolTable
 70
    23
  0
LAYER
  5
10
330
2
100
AcDbSymbolTableRecord
100
AcDbLayerTableRecord
  2
0
 70
     0
 62
     7
  6
Continuous
370
    -3
390
F
347
46
348
0
  0
LAYER
  5
C4
330
2
100
AcDbSymbolTableRecord
100
AcDbLayerTableRecord
  2
1
 70
     0
 62
     7
  6
Continuous
370
     9
390
F
347
46
348
0
  0
LAYER
  5
C5
330
2
100
AcDbSymbolTableRecord
100
AcDbLayerTableRecord
  2
2
 70
     0
 62
   136
420
    32896
  6
Continuous
370
     9
390
F
347
46
348
0
  0
LAYER
  5
C6
330
2
100
AcDbSymbolTableRecord
100
AcDbLayerTableRecord
  2
3
 70
     0
 62
   216
420
  8388736
  6
Continuous
370
     9
390
F
347
46
348
0
  0
LAYER
  5
C7
330
2
100
AcDbSymbolTableRecord
100
AcDbLayerTableRecord
  2
4
 70
     0
 62
    56
420
  8421376
  6
Continuous
370
     9
390
F
347
46
348
0
  0
LAYER
  5
C8
330
2
100
AcDbSymbolTableRecord
100
AcDbLayerTableRecord
  2
5
 70
     0
 62
    96
420
    32768
  6
Continuous
370
     9
390
F
347
46
348
0
  0
LAYER
  5
C9
330
2
100
AcDbSymbolTableRecord
100
AcDbLayerTableRecord
  2
6
 70
     0
 62
    16
420
  8388608
  6
Continuous
370
     9
390
F
347
46
348
0
  0
LAYER
  5
CA
330
2
100
AcDbSymbolTableRecord
100
AcDbLayerTableRecord
  2
7
 70
     0
 62
     4
  6
Continuous
370
     9
390
F
347
46
348
0
  0
LAYER
  5
CB
330
2
100
AcDbSymbolTableRecord
100
AcDbLayerTableRecord
  2
8
 70
     0
 62
     6
  6
Continuous
370
     9
390
F
347
46
348
0
  0
LAYER
  5
CC
330
2
100
AcDbSymbolTableRecord
100
AcDbLayerTableRecord
  2
9
 70
     0
 62
     2
  6
Continuous
370
     9
390
F
347
46
348
0
  0
LAYER
  5
CD
330
2
100
AcDbSymbolTableRecord
100
AcDbLayerTableRecord
  2
10
 70
     0
 62
     3
  6
Continuous
370
     9
390
F
347
46
348
0
  0
LAYER
  5
CE
330
2
100
AcDbSymbolTableRecord
100
AcDbLayerTableRecord
  2
11
 70
     0
 62
     8
420
  8421504
  6
Continuous
370
     9
390
F
347
46
348
0
  0
LAYER
  5
CF
330
2
100
AcDbSymbolTableRecord
100
AcDbLayerTableRecord
  2
12
 70
     0
 62
   138
420
    20560
  6
Continuous
370
     9
390
F
347
46
348
0
  0
LAYER
  5
D0
330
2
100
AcDbSymbolTableRecord
100
AcDbLayerTableRecord
  2
13
 70
     0
 62
   218
420
  5242960
  6
Continuous
370
     9
390
F
347
46
348
0
  0
LAYER
  5
D1
330
2
100
AcDbSymbolTableRecord
100
AcDbLayerTableRecord
  2
14
 70
     0
 62
    58
420
  5263360
  6
Continuous
370
     9
390
F
347
46
348
0
  0
LAYER
  5
D2
330
2
100
AcDbSymbolTableRecord
100
AcDbLayerTableRecord
  2
15
 70
     0
 62
    98
420
    20480
  6
Continuous
370
     9
390
F
347
46
348
0
  0
LAYER
  5
D3
330
2
100
AcDbSymbolTableRecord
100
AcDbLayerTableRecord
  2
16
 70
     0
 62
    18
420
  5242880
  6
Continuous
370
     9
390
F
347
46
348
0
  0
LAYER
  5
D4
330
2
100
AcDbSymbolTableRecord
100
AcDbLayerTableRecord
  2
17
 70
     0
 62
   132
420
    49344
  6
Continuous
370
     9
390
F
347
46
348
0
  0
LAYER
  5
D5
330
2
100
AcDbSymbolTableRecord
100
AcDbLayerTableRecord
  2
18
 70
     0
 62
   212
420
 12583104
  6
Continuous
370
     9
390
F
347
46
348
0
  0
LAYER
  5
D6
330
2
100
AcDbSymbolTableRecord
100
AcDbLayerTableRecord
  2
19
 70
     0
 62
    52
420
 12632064
  6
Continuous
370
     9
390
F
347
46
348
0
  0
LAYER
  5
D7
330
2
100
AcDbSymbolTableRecord
100
AcDbLayerTableRecord
  2
20
 70
     0
 62
   251
420
  5263440
  6
Continuous
370
     9
390
F
347
46
348
0
  0
LAYER
  5
D8
330
2
100
AcDbSymbolTableRecord
100
AcDbLayerTableRecord
  2
21
 70
     0
 62
     7
  6
Continuous
370
     9
390
F
347
46
348
0
  0
LAYER
  5
D9
330
2
100
AcDbSymbolTableRecord
100
AcDbLayerTableRecord
  2
100
 70
     0
 62
     7
  6
Continuous
370
     9
390
F
347
46
348
0
  0
ENDTAB
  0
TABLE
  2
STYLE
  5
3
330
0
100
AcDbSymbolTable
 70
     2
  0
STYLE
  5
11
330
3
100
AcDbSymbolTableRecord
100
AcDbTextStyleTableRecord
  2
Standard
 70
     0
 40
0.0
 41
1.0
 50
0.0
 71
     0
 42
5.0
  3
txt
  4
bigfont
  0
STYLE
  5
6F
330
3
100
AcDbSymbolTableRecord
100
AcDbTextStyleTableRecord
  2
T_STANDARD
 70
     4
 40
10.0
 41
1.0
 50
0.0
 71
     0
 42
5.0
  3
txt
  4
bigfont
1001
ACAD
1000

1071
      256
  0
ENDTAB
  0
TABLE
  2
VIEW
  5
6
330
0
100
AcDbSymbolTable
 70
     0
  0
ENDTAB
  0
TABLE
  2
UCS
  5
7
330
0
100
AcDbSymbolTable
 70
     0
  0
ENDTAB
  0
TABLE
  2
APPID
  5
9
330
0
100
AcDbSymbolTable
 70
     2
  0
APPID
  5
12
330
9
100
AcDbSymbolTableRecord
100
AcDbRegAppTableRecord
  2
ACAD
 70
     0
  0
APPID
  5
6E
330
9
100
AcDbSymbolTableRecord
100
AcDbRegAppTableRecord
  2
ODA
 70
     0
  0
ENDTAB
  0
TABLE
  2
DIMSTYLE
  5
A
330
0
100
AcDbSymbolTable
 70
     1
100
AcDbDimStyleTable
  0
DIMSTYLE
105
27
330
A
100
AcDbSymbolTableRecord
100
AcDbDimStyleTableRecord
  2
Standard
 70
     0
178
     0
340
11
  0
ENDTAB
  0
TABLE
  2
BLOCK_RECORD
  5
1
330
0
100
AcDbSymbolTable
 70
    16
  0
BLOCK_RECORD
  5
1F
330
1
100
AcDbSymbolTableRecord
100
AcDbBlockTableRecord
  2
*Model_Space
340
22
 70
     0
280
     1
281
     0
  0
BLOCK_RECORD
  5
1B
330
1
100
AcDbSymbolTableRecord
100
AcDbBlockTableRecord
  2
*Paper_Space
340
1E
 70
     0
280
     1
281
     0
  0
BLOCK_RECORD
  5
23
330
1
100
AcDbSymbolTableRecord
100
AcDbBlockTableRecord
  2
*Paper_Space0
340
26
 70
     0
280
     1
281
     0
  0
BLOCK_RECORD
  5
70
330
1
100
AcDbSymbolTableRecord
100
AcDbBlockTableRecord
  2
_ORIGIN
340
0
 70
     0
280
     1
281
     0
  0
BLOCK_RECORD
  5
75
330
1
100
AcDbSymbolTableRecord
100
AcDbBlockTableRecord
  2
_DOTBLANK
340
0
 70
     0
280
     1
281
     0
  0
BLOCK_RECORD
  5
7A
330
1
100
AcDbSymbolTableRecord
100
AcDbBlockTableRecord
  2
_DOT
340
0
 70
     0
280
     1
281
     0
  0
BLOCK_RECORD
  5
7F
330
1
100
AcDbSymbolTableRecord
100
AcDbBlockTableRecord
  2
_OPEN
340
0
 70
     0
280
     1
281
     0
  0
BLOCK_RECORD
  5
85
330
1
100
AcDbSymbolTableRecord
100
AcDbBlockTableRecord
  2
_CLOSED
340
0
 70
     0
280
     1
281
     0
  0
BLOCK_RECORD
  5
8C
330
1
100
AcDbSymbolTableRecord
100
AcDbBlockTableRecord
  2
_CLOSEDBLANK
340
0
 70
     0
280
     1
281
     0
  0
BLOCK_RECORD
  5
92
330
1
100
AcDbSymbolTableRecord
100
AcDbBlockTableRecord
  2
_ARROWFILLED
340
0
 70
     0
280
     1
281
     0
  0
BLOCK_RECORD
  5
96
330
1
100
AcDbSymbolTableRecord
100
AcDbBlockTableRecord
  2
_BOXBLANK
340
0
 70
     0
280
     1
281
     0
  0
BLOCK_RECORD
  5
9E
330
1
100
AcDbSymbolTableRecord
100
AcDbBlockTableRecord
  2
_BOXFILLED
340
0
 70
     0
280
     1
281
     0
  0
BLOCK_RECORD
  5
A3
330
1
100
AcDbSymbolTableRecord
100
AcDbBlockTableRecord
  2
_INTEGRAL
340
0
 70
     0
280
     1
281
     0
  0
BLOCK_RECORD
  5
A8
330
1
100
AcDbSymbolTableRecord
100
AcDbBlockTableRecord
  2
_OBLIQUE
340
0
 70
     0
280
     1
281
     0
  0
BLOCK_RECORD
  5
AC
330
1
100
AcDbSymbolTableRecord
100
AcDbBlockTableRecord
  2
_NONE
340
0
 70
     0
280
     1
281
     0
  0
BLOCK_RECORD
  5
AF
330
1
100
AcDbSymbolTableRecord
100
AcDbBlockTableRecord
  2
MARK_OPEN
340
0
 70
     0
280
     1
281
     0
  0
BLOCK_RECORD
  5
B4
330
1
100
AcDbSymbolTableRecord
100
AcDbBlockTableRecord
  2
MARK_ORIGIN
340
0
 70
     0
280
     1
281
     0
  0
BLOCK_RECORD
  5
B8
330
1
100
AcDbSymbolTableRecord
100
AcDbBlockTableRecord
  2
MARK_DOT
340
0
 70
     0
280
     1
281
     0
  0
ENDTAB
  0
ENDSEC
  0
SECTION
  2
BLOCKS
  0
BLOCK
  5
20
330
1F
100
AcDbEntity
  8
0
100
AcDbBlockBegin
  2
*Model_Space
 70
     0
 10
0.0
 20
0.0
 30
0.0
  3
*Model_Space
  1

  0
ENDBLK
  5
21
330
1F
100
AcDbEntity
  8
0
100
AcDbBlockEnd
  0
BLOCK
  5
1C
330
1B
100
AcDbEntity
 67
     1
  8
0
100
AcDbBlockBegin
  2
*Paper_Space
 70
     0
 10
0.0
 20
0.0
 30
0.0
  3
*Paper_Space
  1

  0
ENDBLK
  5
1D
330
1B
100
AcDbEntity
 67
     1
  8
0
100
AcDbBlockEnd
  0
BLOCK
  5
24
330
23
100
AcDbEntity
  8
0
100
AcDbBlockBegin
  2
*Paper_Space0
 70
     0
 10
0.0
 20
0.0
 30
0.0
  3
*Paper_Space0
  1

  0
ENDBLK
  5
25
330
23
100
AcDbEntity
  8
0
100
AcDbBlockEnd
  0
BLOCK
  5
73
330
70
100
AcDbEntity
  8
0
100
AcDbBlockBegin
  2
_ORIGIN
 70
     0
 10
0.0
 20
0.0
 30
0.0
  3
_ORIGIN
  1

  0
CIRCLE
  5
71
330
70
100
AcDbEntity
  8
0
 62
     0
100
AcDbCircle
 10
0.0
 20
0.0
 30
0.0
 40
0.5
  0
LINE
  5
72
330
70
100
AcDbEntity
  8
0
 62
     0
100
AcDbLine
 10
0.0
 20
0.0
 30
0.0
 11
-1.0
 21
0.0
 31
0.0
  0
ENDBLK
  5
74
330
70
100
AcDbEntity
  8
0
100
AcDbBlockEnd
  0
BLOCK
  5
78
330
75
100
AcDbEntity
  8
0
100
AcDbBlockBegin
  2
_DOTBLANK
 70
     0
 10
0.0
 20
0.0
 30
0.0
  3
_DOTBLANK
  1

  0
CIRCLE
  5
76
330
75
100
AcDbEntity
  8
0
 62
     0
100
AcDbCircle
 10
0.0
 20
0.0
 30
0.0
 40
0.5
  0
LINE
  5
77
330
75
100
AcDbEntity
  8
0
 62
     0
100
AcDbLine
 10
-0.5
 20
0.0
 30
0.0
 11
-1.0
 21
0.0
 31
0.0
  0
ENDBLK
  5
79
330
75
100
AcDbEntity
  8
0
100
AcDbBlockEnd
  0
BLOCK
  5
7D
330
7A
100
AcDbEntity
  8
0
100
AcDbBlockBegin
  2
_DOT
 70
     0
 10
0.0
 20
0.0
 30
0.0
  3
_DOT
  1

  0
LWPOLYLINE
  5
7B
330
7A
100
AcDbEntity
  8
0
 62
     0
100
AcDbPolyline
 90
        2
 70
     1
 43
0.5
 10
-0.25
 20
0.0
 42
1.0
 10
0.25
 20
0.0
 42
1.0
  0
LINE
  5
7C
330
7A
100
AcDbEntity
  8
0
 62
     0
100
AcDbLine
 10
-0.5
 20
0.0
 30
0.0
 11
-1.0
 21
0.0
 31
0.0
  0
ENDBLK
  5
7E
330
7A
100
AcDbEntity
  8
0
100
AcDbBlockEnd
  0
BLOCK
  5
83
330
7F
100
AcDbEntity
  8
0
100
AcDbBlockBegin
  2
_OPEN
 70
     0
 10
0.0
 20
0.0
 30
0.0
  3
_OPEN
  1

  0
LINE
  5
80
330
7F
100
AcDbEntity
  8
0
 62
     0
100
AcDbLine
 10
0.0
 20
0.0
 30
0.0
 11
-1.0
 21
0.1666666666666667
 31
0.0
  0
LINE
  5
81
330
7F
100
AcDbEntity
  8
0
 62
     0
100
AcDbLine
 10
0.0
 20
0.0
 30
0.0
 11
-1.0
 21
-0.1666666666666667
 31
0.0
  0
LINE
  5
82
330
7F
100
AcDbEntity
  8
0
 62
     0
100
AcDbLine
 10
0.0
 20
0.0
 30
0.0
 11
-1.0
 21
0.0
 31
0.0
  0
ENDBLK
  5
84
330
7F
100
AcDbEntity
  8
0
100
AcDbBlockEnd
  0
BLOCK
  5
8A
330
85
100
AcDbEntity
  8
0
100
AcDbBlockBegin
  2
_CLOSED
 70
     0
 10
0.0
 20
0.0
 30
0.0
  3
_CLOSED
  1

  0
LINE
  5
86
330
85
100
AcDbEntity
  8
0
 62
     0
100
AcDbLine
 10
0.0
 20
0.0
 30
0.0
 11
-1.0
 21
0.1666666666666667
 31
0.0
  0
LINE
  5
87
330
85
100
AcDbEntity
  8
0
 62
     0
100
AcDbLine
 10
0.0
 20
0.0
 30
0.0
 11
-1.0
 21
-0.1666666666666667
 31
0.0
  0
LINE
  5
88
330
85
100
AcDbEntity
  8
0
 62
     0
100
AcDbLine
 10
-1.0
 20
0.1666666666666667
 30
0.0
 11
-1.0
 21
-0.1666666666666667
 31
0.0
  0
LINE
  5
89
330
85
100
AcDbEntity
  8
0
 62
     0
100
AcDbLine
 10
0.0
 20
0.0
 30
0.0
 11
-1.0
 21
0.0
 31
0.0
  0
ENDBLK
  5
8B
330
85
100
AcDbEntity
  8
0
100
AcDbBlockEnd
  0
BLOCK
  5
90
330
8C
100
AcDbEntity
  8
0
100
AcDbBlockBegin
  2
_CLOSEDBLANK
 70
     0
 10
0.0
 20
0.0
 30
0.0
  3
_CLOSEDBLANK
  1

  0
LINE
  5
8D
330
8C
100
AcDbEntity
  8
0
 62
     0
100
AcDbLine
 10
0.0
 20
0.0
 30
0.0
 11
-1.0
 21
0.1666666666666667
 31
0.0
  0
LINE
  5
8E
330
8C
100
AcDbEntity
  8
0
 62
     0
100
AcDbLine
 10
0.0
 20
0.0
 30
0.0
 11
-1.0
 21
-0.1666666666666667
 31
0.0
  0
LINE
  5
8F
330
8C
100
AcDbEntity
  8
0
 62
     0
100
AcDbLine
 10
-1.0
 20
0.1666666666666667
 30
0.0
 11
-1.0
 21
-0.1666666666666667
 31
0.0
  0
ENDBLK
  5
91
330
8C
100
AcDbEntity
  8
0
100
AcDbBlockEnd
  0
BLOCK
  5
94
330
92
100
AcDbEntity
  8
0
100
AcDbBlockBegin
  2
_ARROWFILLED
 70
     0
 10
0.0
 20
0.0
 30
0.0
  3
_ARROWFILLED
  1

  0
SOLID
  5
93
330
92
100
AcDbEntity
  8
0
 62
     0
100
AcDbTrace
 10
0.0
 20
0.0
 30
0.0
 11
-1.0
 21
-0.1666666666666667
 31
0.0
 12
-1.0
 22
0.1666666666666667
 32
0.0
 13
0.0
 23
0.0
 33
0.0
  0
ENDBLK
  5
95
330
92
100
AcDbEntity
  8
0
100
AcDbBlockEnd
  0
BLOCK
  5
9C
330
96
100
AcDbEntity
  8
0
100
AcDbBlockBegin
  2
_BOXBLANK
 70
     0
 10
0.0
 20
0.0
 30
0.0
  3
_BOXBLANK
  1

  0
LINE
  5
97
330
96
100
AcDbEntity
  8
0
 62
     0
100
AcDbLine
 10
-0.5
 20
-0.5
 30
0.0
 11
0.5
 21
-0.5
 31
0.0
  0
LINE
  5
98
330
96
100
AcDbEntity
  8
0
 62
     0
100
AcDbLine
 10
0.5
 20
-0.5
 30
0.0
 11
0.5
 21
0.5
 31
0.0
  0
LINE
  5
99
330
96
100
AcDbEntity
  8
0
 62
     0
100
AcDbLine
 10
0.5
 20
0.5
 30
0.0
 11
-0.5
 21
0.5
 31
0.0
  0
LINE
  5
9A
330
96
100
AcDbEntity
  8
0
 62
     0
100
AcDbLine
 10
-0.5
 20
0.5
 30
0.0
 11
-0.5
 21
-0.5
 31
0.0
  0
LINE
  5
9B
330
96
100
AcDbEntity
  8
0
 62
     0
100
AcDbLine
 10
-0.5
 20
0.0
 30
0.0
 11
-1.0
 21
0.0
 31
0.0
  0
ENDBLK
  5
9D
330
96
100
AcDbEntity
  8
0
100
AcDbBlockEnd
  0
BLOCK
  5
A1
330
9E
100
AcDbEntity
  8
0
100
AcDbBlockBegin
  2
_BOXFILLED
 70
     0
 10
0.0
 20
0.0
 30
0.0
  3
_BOXFILLED
  1

  0
SOLID
  5
9F
330
9E
100
AcDbEntity
  8
0
 62
     0
100
AcDbTrace
 10
-0.5
 20
0.5
 30
0.0
 11
0.5
 21
0.5
 31
0.0
 12
-0.5
 22
-0.5
 32
0.0
 13
0.5
 23
-0.5
 33
0.0
  0
LINE
  5
A0
330
9E
100
AcDbEntity
  8
0
 62
     0
100
AcDbLine
 10
-0.5
 20
0.0
 30
0.0
 11
-1.0
 21
0.0
 31
0.0
  0
ENDBLK
  5
A2
330
9E
100
AcDbEntity
  8
0
100
AcDbBlockEnd
  0
BLOCK
  5
A6
330
A3
100
AcDbEntity
  8
0
100
AcDbBlockBegin
  2
_INTEGRAL
 70
     0
 10
0.0
 20
0.0
 30
0.0
  3
_INTEGRAL
  1

  0
ARC
  5
A4
330
A3
100
AcDbEntity
  8
0
 62
     0
100
AcDbCircle
 10
0.444888
 20
-0.0913346
 30
0.0
 40
0.4541666
100
AcDbArc
 50
101.9999999999999
 51
167.9999999999998
  0
ARC
  5
A5
330
A3
100
AcDbEntity
  8
0
 62
     0
100
AcDbCircle
 10
-0.444888
 20
0.0913346
 30
0.0
 40
0.4541666
100
AcDbArc
 50
281.9999999999997
 51
347.9999999999997
  0
ENDBLK
  5
A7
330
A3
100
AcDbEntity
  8
0
100
AcDbBlockEnd
  0
BLOCK
  5
AA
330
A8
100
AcDbEntity
  8
0
100
AcDbBlockBegin
  2
_OBLIQUE
 70
     0
 10
0.0
 20
0.0
 30
0.0
  3
_OBLIQUE
  1

  0
LINE
  5
A9
330
A8
100
AcDbEntity
  8
0
 62
     0
100
AcDbLine
 10
-0.5
 20
-0.5
 30
0.0
 11
0.5
 21
0.5
 31
0.0
  0
ENDBLK
  5
AB
330
A8
100
AcDbEntity
  8
0
100
AcDbBlockEnd
  0
BLOCK
  5
AD
330
AC
100
AcDbEntity
  8
0
100
AcDbBlockBegin
  2
_NONE
 70
     0
 10
0.0
 20
0.0
 30
0.0
  3
_NONE
  1

  0
ENDBLK
  5
AE
330
AC
100
AcDbEntity
  8
0
100
AcDbBlockEnd
  0
BLOCK
  5
B2
330
AF
100
AcDbEntity
  8
0
100
AcDbBlockBegin
  2
MARK_OPEN
 70
     0
 10
0.0
 20
0.0
 30
0.0
  3
MARK_OPEN
  1

  0
LINE
  5
B0
330
AF
100
AcDbEntity
  8
0
 62
     0
100
AcDbLine
 10
0.0
 20
0.0
 30
0.0
 11
-1.0
 21
0.1666666666666667
 31
0.0
  0
LINE
  5
B1
330
AF
100
AcDbEntity
  8
0
 62
     0
100
AcDbLine
 10
0.0
 20
0.0
 30
0.0
 11
-1.0
 21
-0.1666666666666667
 31
0.0
  0
ENDBLK
  5
B3
330
AF
100
AcDbEntity
  8
0
100
AcDbBlockEnd
  0
BLOCK
  5
B6
330
B4
100
AcDbEntity
  8
0
100
AcDbBlockBegin
  2
MARK_ORIGIN
 70
     0
 10
0.0
 20
0.0
 30
0.0
  3
MARK_ORIGIN
  1

  0
CIRCLE
  5
B5
330
B4
100
AcDbEntity
  8
0
 62
     0
100
AcDbCircle
 10
0.0
 20
0.0
 30
0.0
 40
0.5
  0
ENDBLK
  5
B7
330
B4
100
AcDbEntity
  8
0
100
AcDbBlockEnd
  0
BLOCK
  5
BA
330
B8
100
AcDbEntity
  8
0
100
AcDbBlockBegin
  2
MARK_DOT
 70
     0
 10
0.0
 20
0.0
 30
0.0
  3
MARK_DOT
  1

  0
LWPOLYLINE
  5
B9
330
B8
100
AcDbEntity
  8
0
 62
     0
100
AcDbPolyline
 90
        2
 70
     1
 43
0.5
 10
-0.25
 20
0.0
 42
1.0
 10
0.25
 20
0.0
 42
1.0
  0
ENDBLK
  5
BB
330
B8
100
AcDbEntity
  8
0
100
AcDbBlockEnd
  0
ENDSEC
  0
SECTION
  2
ENTITIES
  0
MTEXT
  5
DA
330
1F
100
AcDbEntity
  8
100
  6
Continuous
 62
     7
370
     9
100
AcDbMText
 10
-41.7877186965157
 20
-140.9748825528775
 30
0.0
 40
25.0
 41
293.4182016041797
 46
25.0
 71
     7
 72
     1
  1
{\fＭＳ ゴシック;\W0.714286;松本船舶電機製作所}
 73
     1
 44
1.0
  0
MTEXT
  5
DB
330
1F
100
AcDbEntity
  8
100
  6
Continuous
 62
     7
370
     9
100
AcDbMText
 10
-12.71396496387722
 20
148.1715332350013
 30
0.0
 40
25.0
 41
217.5698899897461
 46
25.0
 71
     7
 72
     1
  1
{\fＭＳ ゴシック;\W0.714286;[白熱ランプ付]}
 73
     1
 44
1.0
  0
LINE
  5
DC
330
1F
100
AcDbEntity
  8
100
  6
Continuous
 62
     7
370
    30
100
AcDbLine
 10
109.4393578540073
 20
-47.76625043890448
 30
0.0
 11
110.2596703540073
 21
-44.60218793890448
 31
0.0
  0
LINE
  5
DD
330
1F
100
AcDbEntity
  8
100
  6
Continuous
 62
     7
370
    30
100
AcDbLine
 10
107.3299828540073
 20
-51.98500043890448
 30
0.0
 11
109.4393578540073
 21
-47.76625043890448
 31
0.0
  0
LINE
  5
DE
330
1F
100
AcDbEntity
  8
100
  6
Continuous
 62
     7
370
    30
100
AcDbLine
 10
102.4081078540073
 20
-56.67250043890448
 30
0.0
 11
107.3299828540073
 21
-51.98500043890448
 31
0.0
  0
LINE
  5
DF
330
1F
100
AcDbEntity
  8
100
  6
Continuous
 62
     7
370
    30
100
AcDbLine
 10
94.08779535400734
 20
-60.18812543890448
 30
0.0
 11
102.4081078540073
 21
-56.67250043890448
 31
0.0
  0
LINE
  5
E0
330
1F
100
AcDbEntity
  8
100
  6
Continuous
 62
     7
370
    30
100
AcDbLine
 10
85.41592035400734
 20
-61.71156293890448
 30
0.0
 11
94.08779535400734
 21
-60.18812543890448
 31
0.0
  0
LINE
  5
E1
330
1F
100
AcDbEntity
  8
100
  6
Continuous
 62
     7
370
    30
100
AcDbLine
 10
71.47060785400734
 20
-62.41468793890448
 30
0.0
 11
85.41592035400734
 21
-61.71156293890448
 31
0.0
  0
LINE
  5
E2
330
1F
100
AcDbEntity
  8
100
  6
Continuous
 62
     7
370
    30
100
AcDbLine
 10
60.45498285400733
 20
-61.94593793890448
 30
0.0
 11
71.47060785400734
 21
-62.41468793890448
 31
0.0
  0
LINE
  5
E3
330
1F
100
AcDbEntity
  8
100
  6
Continuous
 62
     7
370
    30
100
AcDbLine
 10
49.20498285400733
 20
-59.60218793890448
 30
0.0
 11
60.45498285400733
 21
-61.94593793890448
 31
0.0
  0
LINE
  5
E4
330
1F
100
AcDbEntity
  8
100
  6
Continuous
 62
     7
370
    30
100
AcDbLine
 10
40.29873285400733
 20
-56.78968793890448
 30
0.0
 11
49.20498285400733
 21
-59.60218793890448
 31
0.0
  0
LINE
  5
E5
330
1F
100
AcDbEntity
  8
100
  6
Continuous
 62
     7
370
    30
100
AcDbLine
 10
34.79092035400733
 20
-53.27406293890448
 30
0.0
 11
40.29873285400733
 21
-56.78968793890448
 31
0.0
  0
LINE
  5
E6
330
1F
100
AcDbEntity
  8
100
  6
Continuous
 62
     7
370
    30
100
AcDbLine
 10
31.50967035400733
 20
-48.70375043890448
 30
0.0
 11
34.79092035400733
 21
-53.27406293890448
 31
0.0
  0
LINE
  5
E7
330
1F
100
AcDbEntity
  8
100
  6
Continuous
 62
     7
370
    30
100
AcDbLine
 10
29.75185785400733
 20
-43.78187543890448
 30
0.0
 11
31.50967035400733
 21
-48.70375043890448
 31
0.0
  0
LINE
  5
E8
330
1F
100
AcDbEntity
  8
100
  6
Continuous
 62
     7
370
    30
100
AcDbLine
 10
31.02627191650733
 20
-32.88343793890448
 30
0.0
 11
31.08486566650733
 21
-33.13246137640448
 31
0.0
  0
LINE
  5
E9
330
1F
100
AcDbEntity
  8
100
  6
Continuous
 62
     7
370
    30
100
AcDbLine
 10
30.82119379150733
 20
-32.61976606390448
 30
0.0
 11
31.02627191650733
 21
-32.88343793890448
 31
0.0
  0
LINE
  5
EA
330
1F
100
AcDbEntity
  8
100
  6
Continuous
 62
     7
370
    30
100
AcDbLine
 10
30.48427972900733
 20
-32.42933637640448
 30
0.0
 11
30.82119379150733
 21
-32.61976606390448
 31
0.0
  0
LINE
  5
EB
330
1F
100
AcDbEntity
  8
100
  6
Continuous
 62
     7
370
    30
100
AcDbLine
 10
29.86904535400733
 20
-32.41468793890448
 30
0.0
 11
30.48427972900733
 21
-32.42933637640448
 31
0.0
  0
LINE
  5
EC
330
1F
100
AcDbEntity
  8
100
  6
Continuous
 62
     7
370
    30
100
AcDbLine
 10
29.19521722900733
 20
-32.42933637640448
 30
0.0
 11
29.86904535400733
 21
-32.41468793890448
 31
0.0
  0
LINE
  5
ED
330
1F
100
AcDbEntity
  8
100
  6
Continuous
 62
     7
370
    30
100
AcDbLine
 10
28.57998285400733
 20
-32.50257856390448
 30
0.0
 11
29.19521722900733
 21
-32.42933637640448
 31
0.0
  0
LINE
  5
EE
330
1F
100
AcDbEntity
  8
100
  6
Continuous
 62
     7
370
    30
100
AcDbLine
 10
28.12588129150733
 20
-32.76625043890448
 30
0.0
 11
28.57998285400733
 21
-32.50257856390448
 31
0.0
  0
LINE
  5
EF
330
1F
100
AcDbEntity
  8
100
  6
Continuous
 62
     7
370
    30
100
AcDbLine
 10
27.99404535400733
 20
-33.23500043890448
 30
0.0
 11
28.12588129150733
 21
-32.76625043890448
 31
0.0
  0
LINE
  5
F0
330
1F
100
AcDbEntity
  8
100
  6
Continuous
 62
     7
370
    30
100
AcDbLine
 10
30.33779535400733
 20
-33.49867231390448
 30
0.0
 11
29.19521722900733
 21
-33.57191450140448
 31
0.0
  0
LINE
  5
F1
330
1F
100
AcDbEntity
  8
100
  6
Continuous
 62
     7
370
    30
100
AcDbLine
 10
31.08486566650733
 20
-33.13246137640448
 30
0.0
 11
30.33779535400733
 21
-33.49867231390448
 31
0.0
  0
LINE
  5
F2
330
1F
100
AcDbEntity
  8
100
  6
Continuous
 62
     7
370
    30
100
AcDbLine
 10
31.48037347900733
 20
-32.60511762640448
 30
0.0
 11
31.08486566650733
 21
-33.13246137640448
 31
0.0
  0
LINE
  5
F3
330
1F
100
AcDbEntity
  8
100
  6
Continuous
 62
     7
370
    30
100
AcDbLine
 10
31.05556879150733
 20
-32.12171918890448
 30
0.0
 11
31.48037347900733
 21
-32.60511762640448
 31
0.0
  0
LINE
  5
F4
330
1F
100
AcDbEntity
  8
100
  6
Continuous
 62
     7
370
    30
100
AcDbLine
 10
30.19131097900733
 20
-31.97523481390448
 30
0.0
 11
31.05556879150733
 21
-32.12171918890448
 31
0.0
  0
LINE
  5
F5
330
1F
100
AcDbEntity
  8
100
  6
Continuous
 62
     7
370
    30
100
AcDbLine
 10
29.16592035400733
 20
-32.01918012640448
 30
0.0
 11
30.19131097900733
 21
-31.97523481390448
 31
0.0
  0
LINE
  5
F6
330
1F
100
AcDbEntity
  8
100
  6
Continuous
 62
     7
370
    30
100
AcDbLine
 10
28.33095941650733
 20
-32.16566450140448
 30
0.0
 11
29.16592035400733
 21
-32.01918012640448
 31
0.0
  0
LINE
  5
F7
330
1F
100
AcDbEntity
  8
100
  6
Continuous
 62
     7
370
    30
100
AcDbLine
 10
27.89150629150733
 20
-32.60511762640448
 30
0.0
 11
28.33095941650733
 21
-32.16566450140448
 31
0.0
  0
LINE
  5
F8
330
1F
100
AcDbEntity
  8
100
  6
Continuous
 62
     7
370
    30
100
AcDbLine
 10
27.84756097900733
 20
-33.00062543890448
 30
0.0
 11
27.89150629150733
 21
-32.60511762640448
 31
0.0
  0
LINE
  5
F9
330
1F
100
AcDbEntity
  8
100
  6
Continuous
 62
     7
370
    30
100
AcDbLine
 10
27.99404535400733
 20
-33.23500043890448
 30
0.0
 11
27.84756097900733
 21
-33.00062543890448
 31
0.0
  0
LINE
  5
FA
330
1F
100
AcDbEntity
  8
100
  6
Continuous
 62
     7
370
    30
100
AcDbLine
 10
28.37490472900733
 20
-33.52796918890448
 30
0.0
 11
27.99404535400733
 21
-33.23500043890448
 31
0.0
  0
LINE
  5
FB
330
1F
100
AcDbEntity
  8
100
  6
Continuous
 62
     7
370
    30
100
AcDbLine
 10
29.19521722900733
 20
-33.57191450140448
 30
0.0
 11
28.37490472900733
 21
-33.52796918890448
 31
0.0
  0
LINE
  5
FC
330
1F
100
AcDbEntity
  8
100
  6
Continuous
 62
     7
370
    30
100
AcDbLine
 10
50.45010004150733
 20
-66.85316450140448
 30
0.0
 11
50.40336975114154
 21
-67.41986654153729
 31
0.0
  0
LINE
  5
FD
330
1F
100
AcDbEntity
  8
100
  6
Continuous
 62
     7
370
    30
100
AcDbLine
 10
50.17177972900733
 20
-66.48695356390448
 30
0.0
 11
50.45010004150733
 21
-66.85316450140448
 31
0.0
  0
LINE
  5
FE
330
1F
100
AcDbEntity
  8
100
  6
Continuous
 62
     7
370
    30
100
AcDbLine
 10
49.61513910400733
 20
-66.28187543890448
 30
0.0
 11
50.17177972900733
 21
-66.48695356390448
 31
0.0
  0
LINE
  5
FF
330
1F
100
AcDbEntity
  8
100
  6
Continuous
 62
     7
370
    30
100
AcDbLine
 10
48.78017816650733
 20
-66.22328168890448
 30
0.0
 11
49.61513910400733
 21
-66.28187543890448
 31
0.0
  0
LINE
  5
100
330
1F
100
AcDbEntity
  8
100
  6
Continuous
 62
     7
370
    30
100
AcDbLine
 10
47.87197504150733
 20
-66.19398481390448
 30
0.0
 11
48.78017816650733
 21
-66.22328168890448
 31
0.0
  0
LINE
  5
101
330
1F
100
AcDbEntity
  8
100
  6
Continuous
 62
     7
370
    30
100
AcDbLine
 10
47.05166254150733
 20
-66.38441450140448
 30
0.0
 11
47.87197504150733
 21
-66.19398481390448
 31
0.0
  0
LINE
  5
102
330
1F
100
AcDbEntity
  8
100
  6
Continuous
 62
     7
370
    30
100
AcDbLine
 10
46.65615472900733
 20
-66.70668012640448
 30
0.0
 11
47.05166254150733
 21
-66.38441450140448
 31
0.0
  0
LINE
  5
103
330
1F
100
AcDbEntity
  8
100
  6
Continuous
 62
     7
370
    30
100
AcDbLine
 10
46.58911563350034
 20
-67.231629282949
 30
0.0
 11
46.65615472900733
 21
-66.70668012640448
 31
0.0
  0
LINE
  5
104
330
1F
100
AcDbEntity
  8
100
  6
Continuous
 62
     7
370
    30
100
AcDbLine
 10
48.63369379150733
 20
-67.95179731390448
 30
0.0
 11
47.44717035400733
 21
-67.81996137640448
 31
0.0
  0
LINE
  5
105
330
1F
100
AcDbEntity
  8
100
  6
Continuous
 62
     7
370
    30
100
AcDbLine
 10
49.93740472900733
 20
-67.70277387640448
 30
0.0
 11
48.63369379150733
 21
-67.95179731390448
 31
0.0
  0
LINE
  5
106
330
1F
100
AcDbEntity
  8
100
  6
Continuous
 62
     7
370
    30
100
AcDbLine
 10
50.75771722900733
 20
-67.20472700140448
 30
0.0
 11
49.93740472900733
 21
-67.70277387640448
 31
0.0
  0
LINE
  5
107
330
1F
100
AcDbEntity
  8
100
  6
Continuous
 62
     7
370
    30
100
AcDbLine
 10
50.81631097900733
 20
-66.53089887640448
 30
0.0
 11
50.75771722900733
 21
-67.20472700140448
 31
0.0
  0
LINE
  5
108
330
1F
100
AcDbEntity
  8
100
  6
Continuous
 62
     7
370
    30
100
AcDbLine
 10
50.55263910400733
 20
-65.95960981390448
 30
0.0
 11
50.81631097900733
 21
-66.53089887640448
 31
0.0
  0
LINE
  5
109
330
1F
100
AcDbEntity
  8
100
  6
Continuous
 62
     7
370
    30
100
AcDbLine
 10
49.87881097900733
 20
-65.52015668890448
 30
0.0
 11
50.55263910400733
 21
-65.95960981390448
 31
0.0
  0
LINE
  5
10A
330
1F
100
AcDbEntity
  8
100
  6
Continuous
 62
     7
370
    30
100
AcDbLine
 10
48.70693597900733
 20
-65.38832075140448
 30
0.0
 11
49.87881097900733
 21
-65.52015668890448
 31
0.0
  0
LINE
  5
10B
330
1F
100
AcDbEntity
  8
100
  6
Continuous
 62
     7
370
    30
100
AcDbLine
 10
47.41787347900733
 20
-65.52015668890448
 30
0.0
 11
48.70693597900733
 21
-65.38832075140448
 31
0.0
  0
LINE
  5
10C
330
1F
100
AcDbEntity
  8
100
  6
Continuous
 62
     7
370
    30
100
AcDbLine
 10
46.50967035400733
 20
-66.00355512640448
 30
0.0
 11
47.41787347900733
 21
-65.52015668890448
 31
0.0
  0
LINE
  5
10D
330
1F
100
AcDbEntity
  8
100
  6
Continuous
 62
     7
370
    30
100
AcDbLine
 10
46.33388910400733
 20
-66.75062543890448
 30
0.0
 11
46.50967035400733
 21
-66.00355512640448
 31
0.0
  0
LINE
  5
10E
330
1F
100
AcDbEntity
  8
100
  6
Continuous
 62
     7
370
    30
100
AcDbLine
 10
46.71474847900733
 20
-67.46839887640448
 30
0.0
 11
46.33388910400733
 21
-66.75062543890448
 31
0.0
  0
LINE
  5
10F
330
1F
100
AcDbEntity
  8
100
  6
Continuous
 62
     7
370
    30
100
AcDbLine
 10
47.44717035400733
 20
-67.81996137640448
 30
0.0
 11
46.71474847900733
 21
-67.46839887640448
 31
0.0
  0
LINE
  5
110
330
1F
100
AcDbEntity
  8
100
  6
Continuous
 62
     7
370
    30
100
AcDbLine
 10
121.5682641040073
 20
-53.52308637640448
 30
0.0
 11
121.3016296236703
 21
-53.92040466994381
 31
0.0
  0
LINE
  5
111
330
1F
100
AcDbEntity
  8
100
  6
Continuous
 62
     7
370
    30
100
AcDbLine
 10
121.5096703540073
 20
-53.11293012640448
 30
0.0
 11
121.5682641040073
 21
-53.52308637640448
 31
0.0
  0
LINE
  5
112
330
1F
100
AcDbEntity
  8
100
  6
Continuous
 62
     7
370
    30
100
AcDbLine
 10
121.1141625415073
 20
-52.79066450140448
 30
0.0
 11
121.5096703540073
 21
-53.11293012640448
 31
0.0
  0
LINE
  5
113
330
1F
100
AcDbEntity
  8
100
  6
Continuous
 62
     7
370
    30
100
AcDbLine
 10
120.5868187915073
 20
-52.52699262640448
 30
0.0
 11
121.1141625415073
 21
-52.79066450140448
 31
0.0
  0
LINE
  5
114
330
1F
100
AcDbEntity
  8
100
  6
Continuous
 62
     7
370
    30
100
AcDbLine
 10
119.6053734790073
 20
-52.48304731390448
 30
0.0
 11
120.5868187915073
 21
-52.52699262640448
 31
0.0
  0
LINE
  5
115
330
1F
100
AcDbEntity
  8
100
  6
Continuous
 62
     7
370
    30
100
AcDbLine
 10
118.7264672290073
 20
-52.54164106390448
 30
0.0
 11
119.6053734790073
 21
-52.48304731390448
 31
0.0
  0
LINE
  5
116
330
1F
100
AcDbEntity
  8
100
  6
Continuous
 62
     7
370
    30
100
AcDbLine
 10
118.2870141040073
 20
-52.83460981390448
 30
0.0
 11
118.7264672290073
 21
-52.54164106390448
 31
0.0
  0
LINE
  5
117
330
1F
100
AcDbEntity
  8
100
  6
Continuous
 62
     7
370
    30
100
AcDbLine
 10
118.0233422290073
 20
-53.18617231390448
 30
0.0
 11
118.2870141040073
 21
-52.83460981390448
 31
0.0
  0
LINE
  5
118
330
1F
100
AcDbEntity
  8
100
  6
Continuous
 62
     7
370
    30
100
AcDbLine
 10
120.6747094165073
 20
-54.06507856390448
 30
0.0
 11
119.4295922290073
 21
-53.97718793890448
 31
0.0
  0
LINE
  5
119
330
1F
100
AcDbEntity
  8
100
  6
Continuous
 62
     7
370
    30
100
AcDbLine
 10
121.6268578540073
 20
-53.84535200140448
 30
0.0
 11
120.6747094165073
 21
-54.06507856390448
 31
0.0
  0
LINE
  5
11A
330
1F
100
AcDbEntity
  8
100
  6
Continuous
 62
     7
370
    30
100
AcDbLine
 10
121.9784203540073
 20
-53.18617231390448
 30
0.0
 11
121.6268578540073
 21
-53.84535200140448
 31
0.0
  0
LINE
  5
11B
330
1F
100
AcDbEntity
  8
100
  6
Continuous
 62
     7
370
    30
100
AcDbLine
 10
121.7001000415073
 20
-52.64418012640448
 30
0.0
 11
121.9784203540073
 21
-53.18617231390448
 31
0.0
  0
LINE
  5
11C
330
1F
100
AcDbEntity
  8
100
  6
Continuous
 62
     7
370
    30
100
AcDbLine
 10
121.0702172290073
 20
-52.16078168890448
 30
0.0
 11
121.7001000415073
 21
-52.64418012640448
 31
0.0
  0
LINE
  5
11D
330
1F
100
AcDbEntity
  8
100
  6
Continuous
 62
     7
370
    30
100
AcDbLine
 10
119.6639672290073
 20
-51.98500043890448
 30
0.0
 11
121.0702172290073
 21
-52.16078168890448
 31
0.0
  0
LINE
  5
11E
330
1F
100
AcDbEntity
  8
100
  6
Continuous
 62
     7
370
    30
100
AcDbLine
 10
118.5946312915073
 20
-51.98500043890448
 30
0.0
 11
119.6639672290073
 21
-51.98500043890448
 31
0.0
  0
LINE
  5
11F
330
1F
100
AcDbEntity
  8
100
  6
Continuous
 62
     7
370
    30
100
AcDbLine
 10
117.9354516040073
 20
-52.55628950140448
 30
0.0
 11
118.5946312915073
 21
-51.98500043890448
 31
0.0
  0
LINE
  5
120
330
1F
100
AcDbEntity
  8
100
  6
Continuous
 62
     7
370
    30
100
AcDbLine
 10
118.0233422290073
 20
-53.18617231390448
 30
0.0
 11
117.9354516040073
 21
-52.55628950140448
 31
0.0
  0
LINE
  5
121
330
1F
100
AcDbEntity
  8
100
  6
Continuous
 62
     7
370
    30
100
AcDbLine
 10
118.5360375415073
 20
-53.66957075140448
 30
0.0
 11
118.0233422290073
 21
-53.18617231390448
 31
0.0
  0
LINE
  5
122
330
1F
100
AcDbEntity
  8
100
  6
Continuous
 62
     7
370
    30
100
AcDbLine
 10
119.4295922290073
 20
-53.97718793890448
 30
0.0
 11
118.5360375415073
 21
-53.66957075140448
 31
0.0
  0
LINE
  5
123
330
1F
100
AcDbEntity
  8
100
  6
Continuous
 62
     7
370
    30
100
AcDbLine
 10
125.7870141040073
 20
-53.83070356390448
 30
0.0
 11
126.317047675943
 21
-52.30632323972085
 31
0.0
  0
LINE
  5
124
330
1F
100
AcDbEntity
  8
100
  6
Continuous
 62
     7
370
    30
100
AcDbLine
 10
124.8495141040073
 20
-56.23304731390448
 30
0.0
 11
125.7870141040073
 21
-53.83070356390448
 31
0.0
  0
LINE
  5
125
330
1F
100
AcDbEntity
  8
100
  6
Continuous
 62
     7
370
    30
100
AcDbLine
 10
122.5057641040073
 20
-59.63148481390448
 30
0.0
 11
124.8495141040073
 21
-56.23304731390448
 31
0.0
  0
LINE
  5
126
330
1F
100
AcDbEntity
  8
100
  6
Continuous
 62
     7
370
    30
100
AcDbLine
 10
119.5760766040073
 20
-62.26820356390448
 30
0.0
 11
122.5057641040073
 21
-59.63148481390448
 31
0.0
  0
LINE
  5
127
330
1F
100
AcDbEntity
  8
100
  6
Continuous
 62
     7
370
    30
100
AcDbLine
 10
114.7127953540073
 20
-65.31507856390448
 30
0.0
 11
119.5760766040073
 21
-62.26820356390448
 31
0.0
  0
LINE
  5
128
330
1F
100
AcDbEntity
  8
100
  6
Continuous
 62
     7
370
    30
100
AcDbLine
 10
109.2049828540073
 20
-67.83460981390448
 30
0.0
 11
114.7127953540073
 21
-65.31507856390448
 31
0.0
  0
LINE
  5
129
330
1F
100
AcDbEntity
  8
100
  6
Continuous
 62
     7
370
    30
100
AcDbLine
 10
99.12685785400734
 20
-71.23304731390448
 30
0.0
 11
109.2049828540073
 21
-67.83460981390448
 31
0.0
  0
LINE
  5
12A
330
1F
100
AcDbEntity
  8
100
  6
Continuous
 62
     7
370
    30
100
AcDbLine
 10
88.11123285400734
 20
-73.45960981390448
 30
0.0
 11
99.12685785400734
 21
-71.23304731390448
 31
0.0
  0
LINE
  5
12B
330
1F
100
AcDbEntity
  8
100
  6
Continuous
 62
     7
370
    30
100
AcDbLine
 10
77.74013910400734
 20
-74.04554731390448
 30
0.0
 11
88.11123285400734
 21
-73.45960981390448
 31
0.0
  0
LINE
  5
12C
330
1F
100
AcDbEntity
  8
100
  6
Continuous
 62
     7
370
    30
100
AcDbLine
 10
67.66201410400734
 20
-73.69398481390448
 30
0.0
 11
77.74013910400734
 21
-74.04554731390448
 31
0.0
  0
LINE
  5
12D
330
1F
100
AcDbEntity
  8
100
  6
Continuous
 62
     7
370
    30
100
AcDbLine
 10
53.59951410400733
 20
-71.93617231390448
 30
0.0
 11
67.66201410400734
 21
-73.69398481390448
 31
0.0
  0
LINE
  5
12E
330
1F
100
AcDbEntity
  8
100
  6
Continuous
 62
     7
370
    30
100
AcDbLine
 10
42.11513910400733
 20
-68.88929731390448
 30
0.0
 11
53.59951410400733
 21
-71.93617231390448
 31
0.0
  0
LINE
  5
12F
330
1F
100
AcDbEntity
  8
100
  6
Continuous
 62
     7
370
    30
100
AcDbLine
 10
30.27920160400733
 20
-63.49867231390448
 30
0.0
 11
42.11513910400733
 21
-68.88929731390448
 31
0.0
  0
LINE
  5
130
330
1F
100
AcDbEntity
  8
100
  6
Continuous
 62
     7
370
    30
100
AcDbLine
 10
23.30654535400733
 20
-58.22523481390448
 30
0.0
 11
30.27920160400733
 21
-63.49867231390448
 31
0.0
  0
LINE
  5
131
330
1F
100
AcDbEntity
  8
100
  6
Continuous
 62
     7
370
    30
100
AcDbLine
 10
18.91201410400733
 20
-52.36585981390448
 30
0.0
 11
23.30654535400733
 21
-58.22523481390448
 31
0.0
  0
LINE
  5
132
330
1F
100
AcDbEntity
  8
100
  6
Continuous
 62
     7
370
    30
100
AcDbLine
 10
17.32998285400733
 20
-47.91273481390448
 30
0.0
 11
18.91201410400733
 21
-52.36585981390448
 31
0.0
  0
LINE
  5
133
330
1F
100
AcDbEntity
  8
100
  6
Continuous
 62
     7
370
    30
100
AcDbLine
 10
17.06403317680445
 20
-44.26224223013921
 30
0.0
 11
17.32998285400733
 21
-47.91273481390448
 31
0.0
  0
LINE
  5
134
330
1F
100
AcDbEntity
  8
100
  6
Continuous
 62
     7
370
    30
100
AcDbLine
 10
27.84756097900733
 20
-31.12562543890448
 30
0.0
 11
30.41103754150733
 21
-29.51429731390448
 31
0.0
  0
LINE
  5
135
330
1F
100
AcDbEntity
  8
100
  6
Continuous
 62
     7
370
    30
100
AcDbLine
 10
24.88857660400733
 20
-33.20570356390448
 30
0.0
 11
27.84756097900733
 21
-31.12562543890448
 31
0.0
  0
LINE
  5
136
330
1F
100
AcDbEntity
  8
100
  6
Continuous
 62
     7
370
    30
100
AcDbLine
 10
22.22256097900733
 20
-35.43226606390448
 30
0.0
 11
24.88857660400733
 21
-33.20570356390448
 31
0.0
  0
LINE
  5
137
330
1F
100
AcDbEntity
  8
100
  6
Continuous
 62
     7
370
    30
100
AcDbLine
 10
20.31826410400733
 20
-37.60023481390448
 30
0.0
 11
22.22256097900733
 21
-35.43226606390448
 31
0.0
  0
LINE
  5
138
330
1F
100
AcDbEntity
  8
100
  6
Continuous
 62
     7
370
    30
100
AcDbLine
 10
18.50185785400733
 20
-40.06117231390448
 30
0.0
 11
20.31826410400733
 21
-37.60023481390448
 31
0.0
  0
LINE
  5
139
330
1F
100
AcDbEntity
  8
100
  6
Continuous
 62
     7
370
    30
100
AcDbLine
 10
17.35927972900733
 20
-42.75648481390448
 30
0.0
 11
18.50185785400733
 21
-40.06117231390448
 31
0.0
  0
LINE
  5
13A
330
1F
100
AcDbEntity
  8
100
  6
Continuous
 62
     7
370
    30
100
AcDbLine
 10
16.77334222900733
 20
-45.74476606390448
 30
0.0
 11
17.35927972900733
 21
-42.75648481390448
 31
0.0
  0
LINE
  5
13B
330
1F
100
AcDbEntity
  8
100
  6
Continuous
 62
     7
370
    30
100
AcDbLine
 10
16.74404535400733
 20
-48.73304731390448
 30
0.0
 11
16.77334222900733
 21
-45.74476606390448
 31
0.0
  0
LINE
  5
13C
330
1F
100
AcDbEntity
  8
100
  6
Continuous
 62
     7
370
    30
100
AcDbLine
 10
16.80263910400733
 20
-52.16078168890448
 30
0.0
 11
16.74404535400733
 21
-48.73304731390448
 31
0.0
  0
LINE
  5
13D
330
1F
100
AcDbEntity
  8
100
  6
Continuous
 62
     7
370
    30
100
AcDbLine
 10
17.32998285400733
 20
-54.70960981390448
 30
0.0
 11
16.80263910400733
 21
-52.16078168890448
 31
0.0
  0
LINE
  5
13E
330
1F
100
AcDbEntity
  8
100
  6
Continuous
 62
     7
370
    30
100
AcDbLine
 10
18.29677972900733
 20
-57.25843793890448
 30
0.0
 11
17.32998285400733
 21
-54.70960981390448
 31
0.0
  0
LINE
  5
13F
330
1F
100
AcDbEntity
  8
100
  6
Continuous
 62
     7
370
    30
100
AcDbLine
 10
19.38076410400733
 20
-59.27992231390448
 30
0.0
 11
18.29677972900733
 21
-57.25843793890448
 31
0.0
  0
LINE
  5
140
330
1F
100
AcDbEntity
  8
100
  6
Continuous
 62
     7
370
    30
100
AcDbLine
 10
21.13857660400733
 20
-61.59437543890448
 30
0.0
 11
19.38076410400733
 21
-59.27992231390448
 31
0.0
  0
LINE
  5
141
330
1F
100
AcDbEntity
  8
100
  6
Continuous
 62
     7
370
    30
100
AcDbLine
 10
23.59951410400733
 20
-64.28968793890448
 30
0.0
 11
21.13857660400733
 21
-61.59437543890448
 31
0.0
  0
LINE
  5
142
330
1F
100
AcDbEntity
  8
100
  6
Continuous
 62
     7
370
    30
100
AcDbLine
 10
26.88076410400733
 20
-67.01429731390448
 30
0.0
 11
23.59951410400733
 21
-64.28968793890448
 31
0.0
  0
LINE
  5
143
330
1F
100
AcDbEntity
  8
100
  6
Continuous
 62
     7
370
    30
100
AcDbLine
 10
30.33779535400733
 20
-69.29945356390448
 30
0.0
 11
26.88076410400733
 21
-67.01429731390448
 31
0.0
  0
LINE
  5
144
330
1F
100
AcDbEntity
  8
100
  6
Continuous
 62
     7
370
    30
100
AcDbLine
 10
35.40615472900733
 20
-72.17054731390448
 30
0.0
 11
30.33779535400733
 21
-69.29945356390448
 31
0.0
  0
LINE
  5
145
330
1F
100
AcDbEntity
  8
100
  6
Continuous
 62
     7
370
    30
100
AcDbLine
 10
40.88467035400733
 20
-74.27992231390448
 30
0.0
 11
35.40615472900733
 21
-72.17054731390448
 31
0.0
  0
LINE
  5
146
330
1F
100
AcDbEntity
  8
100
  6
Continuous
 62
     7
370
    30
100
AcDbLine
 10
46.45107660400733
 20
-76.21351606390448
 30
0.0
 11
40.88467035400733
 21
-74.27992231390448
 31
0.0
  0
LINE
  5
147
330
1F
100
AcDbEntity
  8
100
  6
Continuous
 62
     7
370
    30
100
AcDbLine
 10
52.83779535400733
 20
-77.79554731390448
 30
0.0
 11
46.45107660400733
 21
-76.21351606390448
 31
0.0
  0
LINE
  5
148
330
1F
100
AcDbEntity
  8
100
  6
Continuous
 62
     7
370
    30
100
AcDbLine
 10
60.19131097900733
 20
-79.02601606390448
 30
0.0
 11
52.83779535400733
 21
-77.79554731390448
 31
0.0
  0
LINE
  5
149
330
1F
100
AcDbEntity
  8
100
  6
Continuous
 62
     7
370
    30
100
AcDbLine
 10
65.93349847900734
 20
-79.72914106390448
 30
0.0
 11
60.19131097900733
 21
-79.02601606390448
 31
0.0
  0
LINE
  5
14A
330
1F
100
AcDbEntity
  8
100
  6
Continuous
 62
     7
370
    30
100
AcDbLine
 10
71.47060785400734
 20
-80.08070356390448
 30
0.0
 11
65.93349847900734
 21
-79.72914106390448
 31
0.0
  0
LINE
  5
14B
330
1F
100
AcDbEntity
  8
100
  6
Continuous
 62
     7
370
    30
100
AcDbLine
 10
78.20888910400734
 20
-80.08070356390448
 30
0.0
 11
71.47060785400734
 21
-80.08070356390448
 31
0.0
  0
LINE
  5
14C
330
1F
100
AcDbEntity
  8
100
  6
Continuous
 62
     7
370
    30
100
AcDbLine
 10
85.09365472900734
 20
-79.58265668890448
 30
0.0
 11
78.20888910400734
 21
-80.08070356390448
 31
0.0
  0
LINE
  5
14D
330
1F
100
AcDbEntity
  8
100
  6
Continuous
 62
     7
370
    30
100
AcDbLine
 10
91.53896722900734
 20
-78.70375043890448
 30
0.0
 11
85.09365472900734
 21
-79.58265668890448
 31
0.0
  0
LINE
  5
14E
330
1F
100
AcDbEntity
  8
100
  6
Continuous
 62
     7
370
    30
100
AcDbLine
 10
99.41982660400734
 20
-76.94593793890448
 30
0.0
 11
91.53896722900734
 21
-78.70375043890448
 31
0.0
  0
LINE
  5
14F
330
1F
100
AcDbEntity
  8
100
  6
Continuous
 62
     7
370
    30
100
AcDbLine
 10
105.7186547290073
 20
-75.12953168890448
 30
0.0
 11
99.41982660400734
 21
-76.94593793890448
 31
0.0
  0
LINE
  5
150
330
1F
100
AcDbEntity
  8
100
  6
Continuous
 62
     7
370
    30
100
AcDbLine
 10
113.2186547290073
 20
-71.81898481390448
 30
0.0
 11
105.7186547290073
 21
-75.12953168890448
 31
0.0
  0
LINE
  5
151
330
1F
100
AcDbEntity
  8
100
  6
Continuous
 62
     7
370
    30
100
AcDbLine
 10
118.9901391040073
 20
-67.95179731390448
 30
0.0
 11
113.2186547290073
 21
-71.81898481390448
 31
0.0
  0
LINE
  5
152
330
1F
100
AcDbEntity
  8
100
  6
Continuous
 62
     7
370
    30
100
AcDbLine
 10
123.0624047290073
 20
-63.76234418890448
 30
0.0
 11
118.9901391040073
 21
-67.95179731390448
 31
0.0
  0
LINE
  5
153
330
1F
100
AcDbEntity
  8
100
  6
Continuous
 62
     7
370
    30
100
AcDbLine
 10
125.2596703540073
 20
-59.80726606390448
 30
0.0
 11
123.0624047290073
 21
-63.76234418890448
 31
0.0
  0
LINE
  5
154
330
1F
100
AcDbEntity
  8
100
  6
Continuous
 62
     7
370
    30
100
AcDbLine
 10
126.2557641040073
 20
-56.76039106390448
 30
0.0
 11
125.2596703540073
 21
-59.80726606390448
 31
0.0
  0
LINE
  5
155
330
1F
100
AcDbEntity
  8
100
  6
Continuous
 62
     7
370
    30
100
AcDbLine
 10
126.3436547290073
 20
-54.03578168890448
 30
0.0
 11
126.2557641040073
 21
-56.76039106390448
 31
0.0
  0
LINE
  5
156
330
1F
100
AcDbEntity
  8
100
  6
Continuous
 62
     7
370
    30
100
AcDbLine
 10
126.2850609790073
 20
-50.22718793890448
 30
0.0
 11
126.3436547290073
 21
-54.03578168890448
 31
0.0
  0
LINE
  5
157
330
1F
100
AcDbEntity
  8
100
  6
Continuous
 62
     7
370
    30
100
AcDbLine
 10
125.6991234790073
 20
-46.18421918890448
 30
0.0
 11
126.2850609790073
 21
-50.22718793890448
 31
0.0
  0
LINE
  5
158
330
1F
100
AcDbEntity
  8
100
  6
Continuous
 62
     7
370
    30
100
AcDbLine
 10
124.5858422290073
 20
-43.75257856390448
 30
0.0
 11
125.6991234790073
 21
-46.18421918890448
 31
0.0
  0
LINE
  5
159
330
1F
100
AcDbEntity
  8
100
  6
Continuous
 62
     7
370
    30
100
AcDbLine
 10
122.0956078540073
 20
-40.11976606390448
 30
0.0
 11
124.5858422290073
 21
-43.75257856390448
 31
0.0
  0
LINE
  5
15A
330
1F
100
AcDbEntity
  8
100
  6
Continuous
 62
     7
370
    30
100
AcDbLine
 10
119.3709984790073
 20
-37.19007856390448
 30
0.0
 11
122.0956078540073
 21
-40.11976606390448
 31
0.0
  0
LINE
  5
15B
330
1F
100
AcDbEntity
  8
100
  6
Continuous
 62
     7
370
    30
100
AcDbLine
 10
116.2069359790073
 20
-34.61195356390448
 30
0.0
 11
119.3709984790073
 21
-37.19007856390448
 31
0.0
  0
LINE
  5
15C
330
1F
100
AcDbEntity
  8
100
  6
Continuous
 62
     7
370
    30
100
AcDbLine
 10
114.1268578540073
 20
-33.17640668890448
 30
0.0
 11
116.2069359790073
 21
-34.61195356390448
 31
0.0
  0
LINE
  5
15D
330
1F
100
AcDbEntity
  8
100
  6
Continuous
 62
     7
370
    30
100
AcDbLine
 10
112.5448266040073
 20
-32.10707075140448
 30
0.0
 11
114.1268578540073
 21
-33.17640668890448
 31
0.0
  0
LINE
  5
15E
330
1F
100
AcDbEntity
  8
100
  6
Continuous
 62
     7
370
    30
100
AcDbLine
 10
108.7183656251434
 20
-33.81266948402472
 30
0.0
 11
108.6043969165073
 21
-37.19007856390448
 31
0.0
  0
LINE
  5
15F
330
1F
100
AcDbEntity
  8
100
  6
Continuous
 62
     7
370
    30
100
AcDbLine
 10
34.76149926847577
 20
-31.59327902413718
 30
0.0
 11
34.62978754150733
 21
-37.19007856390448
 31
0.0
  0
LINE
  5
160
330
1F
100
AcDbEntity
  8
100
  6
Continuous
 62
     7
370
    30
100
AcDbLine
 10
22.14931879150733
 20
-19.31898481390448
 30
0.0
 11
22.14931879150733
 21
-16.03773481390448
 31
0.0
  0
LINE
  5
161
330
1F
100
AcDbEntity
  8
100
  6
Continuous
 62
     7
370
    30
100
AcDbLine
 10
22.55947504150733
 20
-20.72523481390448
 30
0.0
 11
22.14931879150733
 21
-19.31898481390448
 31
0.0
  0
LINE
  5
162
330
1F
100
AcDbEntity
  8
100
  6
Continuous
 62
     7
370
    30
100
AcDbLine
 10
23.73135004150733
 20
-22.95179731390448
 30
0.0
 11
22.55947504150733
 21
-20.72523481390448
 31
0.0
  0
LINE
  5
163
330
1F
100
AcDbEntity
  8
100
  6
Continuous
 62
     7
370
    30
100
AcDbLine
 10
26.25088129150733
 20
-25.94007856390448
 30
0.0
 11
23.73135004150733
 21
-22.95179731390448
 31
0.0
  0
LINE
  5
164
330
1F
100
AcDbEntity
  8
100
  6
Continuous
 62
     7
370
    30
100
AcDbLine
 10
30.41103754150733
 20
-29.51429731390448
 30
0.0
 11
26.25088129150733
 21
-25.94007856390448
 31
0.0
  0
LINE
  5
165
330
1F
100
AcDbEntity
  8
100
  6
Continuous
 62
     7
370
    30
100
AcDbLine
 10
37.03213129150733
 20
-32.67835981390448
 30
0.0
 11
30.41103754150733
 21
-29.51429731390448
 31
0.0
  0
LINE
  5
166
330
1F
100
AcDbEntity
  8
100
  6
Continuous
 62
     7
370
    30
100
AcDbLine
 10
47.98916254150733
 20
-36.31117231390448
 30
0.0
 11
37.03213129150733
 21
-32.67835981390448
 31
0.0
  0
LINE
  5
167
330
1F
100
AcDbEntity
  8
100
  6
Continuous
 62
     7
370
    30
100
AcDbLine
 10
57.48135004150733
 20
-38.30335981390448
 30
0.0
 11
47.98916254150733
 21
-36.31117231390448
 31
0.0
  0
LINE
  5
168
330
1F
100
AcDbEntity
  8
100
  6
Continuous
 62
     7
370
    30
100
AcDbLine
 10
63.57510004150733
 20
-38.83070356390448
 30
0.0
 11
57.48135004150733
 21
-38.30335981390448
 31
0.0
  0
LINE
  5
169
330
1F
100
AcDbEntity
  8
100
  6
Continuous
 62
     7
370
    30
100
AcDbLine
 10
77.05166254150734
 20
-39.24085981390448
 30
0.0
 11
63.57510004150733
 21
-38.83070356390448
 31
0.0
  0
LINE
  5
16A
330
1F
100
AcDbEntity
  8
100
  6
Continuous
 62
     7
370
    30
100
AcDbLine
 10
85.54775629150734
 20
-38.77210981390448
 30
0.0
 11
77.05166254150734
 21
-39.24085981390448
 31
0.0
  0
LINE
  5
16B
330
1F
100
AcDbEntity
  8
100
  6
Continuous
 62
     7
370
    30
100
AcDbLine
 10
96.03603754150734
 20
-37.13148481390448
 30
0.0
 11
85.54775629150734
 21
-38.77210981390448
 31
0.0
  0
LINE
  5
16C
330
1F
100
AcDbEntity
  8
100
  6
Continuous
 62
     7
370
    30
100
AcDbLine
 10
105.2352562915073
 20
-35.16859418890448
 30
0.0
 11
96.03603754150734
 21
-37.13148481390448
 31
0.0
  0
LINE
  5
16D
330
1F
100
AcDbEntity
  8
100
  6
Continuous
 62
     7
370
    30
100
AcDbLine
 10
109.3368187915073
 20
-33.57191450140448
 30
0.0
 11
105.2352562915073
 21
-35.16859418890448
 31
0.0
  0
LINE
  5
16E
330
1F
100
AcDbEntity
  8
100
  6
Continuous
 62
     7
370
    30
100
AcDbLine
 10
112.5448266040073
 20
-32.10707075140448
 30
0.0
 11
109.3368187915073
 21
-33.57191450140448
 31
0.0
  0
LINE
  5
16F
330
1F
100
AcDbEntity
  8
100
  6
Continuous
 62
     7
370
    30
100
AcDbLine
 10
115.8993187915073
 20
-29.92445356390448
 30
0.0
 11
112.5448266040073
 21
-32.10707075140448
 31
0.0
  0
LINE
  5
170
330
1F
100
AcDbEntity
  8
100
  6
Continuous
 62
     7
370
    30
100
AcDbLine
 10
118.1844750415073
 20
-28.02015668890448
 30
0.0
 11
115.8993187915073
 21
-29.92445356390448
 31
0.0
  0
LINE
  5
171
330
1F
100
AcDbEntity
  8
100
  6
Continuous
 62
     7
370
    30
100
AcDbLine
 10
119.7811547290073
 20
-26.37953168890448
 30
0.0
 11
118.1844750415073
 21
-28.02015668890448
 31
0.0
  0
LINE
  5
172
330
1F
100
AcDbEntity
  8
100
  6
Continuous
 62
     7
370
    30
100
AcDbLine
 10
120.8065453540073
 20
-24.66566450140448
 30
0.0
 11
119.7811547290073
 21
-26.37953168890448
 31
0.0
  0
LINE
  5
173
330
1F
100
AcDbEntity
  8
100
  6
Continuous
 62
     7
370
    30
100
AcDbLine
 10
121.4510766040073
 20
-22.83460981390448
 30
0.0
 11
120.8065453540073
 21
-24.66566450140448
 31
0.0
  0
LINE
  5
174
330
1F
100
AcDbEntity
  8
100
  6
Continuous
 62
     7
370
    30
100
AcDbLine
 10
121.4657250415073
 20
-19.43617231390448
 30
0.0
 11
121.4510766040073
 21
-22.83460981390448
 31
0.0
  0
LINE
  5
175
330
1F
100
AcDbEntity
  8
100
  6
Continuous
 62
     7
370
    30
100
AcDbLine
 10
119.5321312915073
 20
-13.13734418890448
 30
0.0
 11
117.8202606018807
 21
-11.26303453184623
 31
0.0
  0
LINE
  5
176
330
1F
100
AcDbEntity
  8
100
  6
Continuous
 62
     7
370
    30
100
AcDbLine
 10
120.2645531665073
 20
-14.30921918890448
 30
0.0
 11
119.5321312915073
 21
-13.13734418890448
 31
0.0
  0
LINE
  5
177
330
1F
100
AcDbEntity
  8
100
  6
Continuous
 62
     7
370
    30
100
AcDbLine
 10
121.0555687915073
 20
-15.71546918890448
 30
0.0
 11
120.2645531665073
 21
-14.30921918890448
 31
0.0
  0
LINE
  5
178
330
1F
100
AcDbEntity
  8
100
  6
Continuous
 62
     7
370
    30
100
AcDbLine
 10
121.5243187915073
 20
-17.20960981390448
 30
0.0
 11
121.0555687915073
 21
-15.71546918890448
 31
0.0
  0
LINE
  5
179
330
1F
100
AcDbEntity
  8
100
  6
Continuous
 62
     7
370
    30
100
AcDbLine
 10
121.4657250415073
 20
-19.43617231390448
 30
0.0
 11
121.5243187915073
 21
-17.20960981390448
 31
0.0
  0
LINE
  5
17A
330
1F
100
AcDbEntity
  8
100
  6
Continuous
 62
     7
370
    30
100
AcDbLine
 10
120.5575219165073
 20
-21.57484418890448
 30
0.0
 11
121.4657250415073
 21
-19.43617231390448
 31
0.0
  0
LINE
  5
17B
330
1F
100
AcDbEntity
  8
100
  6
Continuous
 62
     7
370
    30
100
AcDbLine
 10
117.4520531665073
 20
-24.68031293890448
 30
0.0
 11
120.5575219165073
 21
-21.57484418890448
 31
0.0
  0
LINE
  5
17C
330
1F
100
AcDbEntity
  8
100
  6
Continuous
 62
     7
370
    30
100
AcDbLine
 10
114.8446312915073
 20
-26.58460981390448
 30
0.0
 11
117.4520531665073
 21
-24.68031293890448
 31
0.0
  0
LINE
  5
17D
330
1F
100
AcDbEntity
  8
100
  6
Continuous
 62
     7
370
    30
100
AcDbLine
 10
108.9559594165073
 20
-29.33851606390448
 30
0.0
 11
114.8446312915073
 21
-26.58460981390448
 31
0.0
  0
LINE
  5
17E
330
1F
100
AcDbEntity
  8
100
  6
Continuous
 62
     7
370
    30
100
AcDbLine
 10
103.3309594165073
 20
-31.12562543890448
 30
0.0
 11
108.9559594165073
 21
-29.33851606390448
 31
0.0
  0
LINE
  5
17F
330
1F
100
AcDbEntity
  8
100
  6
Continuous
 62
     7
370
    30
100
AcDbLine
 10
96.79775629150734
 20
-32.70765668890448
 30
0.0
 11
103.3309594165073
 21
-31.12562543890448
 31
0.0
  0
LINE
  5
180
330
1F
100
AcDbEntity
  8
100
  6
Continuous
 62
     7
370
    30
100
AcDbLine
 10
89.97158441650734
 20
-33.67445356390448
 30
0.0
 11
96.79775629150734
 21
-32.70765668890448
 31
0.0
  0
LINE
  5
181
330
1F
100
AcDbEntity
  8
100
  6
Continuous
 62
     7
370
    30
100
AcDbLine
 10
80.42080316650734
 20
-34.17250043890448
 30
0.0
 11
89.97158441650734
 21
-33.67445356390448
 31
0.0
  0
LINE
  5
182
330
1F
100
AcDbEntity
  8
100
  6
Continuous
 62
     7
370
    30
100
AcDbLine
 10
72.56924066650734
 20
-33.96742231390448
 30
0.0
 11
80.42080316650734
 21
-34.17250043890448
 31
0.0
  0
LINE
  5
183
330
1F
100
AcDbEntity
  8
100
  6
Continuous
 62
     7
370
    30
100
AcDbLine
 10
61.90517816650733
 20
-33.46937543890448
 30
0.0
 11
72.56924066650734
 21
-33.96742231390448
 31
0.0
  0
LINE
  5
184
330
1F
100
AcDbEntity
  8
100
  6
Continuous
 62
     7
370
    30
100
AcDbLine
 10
55.19619379150733
 20
-32.50257856390448
 30
0.0
 11
61.90517816650733
 21
-33.46937543890448
 31
0.0
  0
LINE
  5
185
330
1F
100
AcDbEntity
  8
100
  6
Continuous
 62
     7
370
    30
100
AcDbLine
 10
49.19033441650733
 20
-31.50648481390448
 30
0.0
 11
55.19619379150733
 21
-32.50257856390448
 31
0.0
  0
LINE
  5
186
330
1F
100
AcDbEntity
  8
100
  6
Continuous
 62
     7
370
    30
100
AcDbLine
 10
43.12588129150733
 20
-29.98304731390448
 30
0.0
 11
49.19033441650733
 21
-31.50648481390448
 31
0.0
  0
LINE
  5
187
330
1F
100
AcDbEntity
  8
100
  6
Continuous
 62
     7
370
    30
100
AcDbLine
 10
38.29189691650733
 20
-28.28382856390448
 30
0.0
 11
43.12588129150733
 21
-29.98304731390448
 31
0.0
  0
LINE
  5
188
330
1F
100
AcDbEntity
  8
100
  6
Continuous
 62
     7
370
    30
100
AcDbLine
 10
34.30752191650733
 20
-26.55531293890448
 30
0.0
 11
38.29189691650733
 21
-28.28382856390448
 31
0.0
  0
LINE
  5
189
330
1F
100
AcDbEntity
  8
100
  6
Continuous
 62
     7
370
    30
100
AcDbLine
 10
29.59072504150733
 20
-24.09437543890448
 30
0.0
 11
34.30752191650733
 21
-26.55531293890448
 31
0.0
  0
LINE
  5
18A
330
1F
100
AcDbEntity
  8
100
  6
Continuous
 62
     7
370
    30
100
AcDbLine
 10
26.25088129150733
 20
-21.69203168890448
 30
0.0
 11
29.59072504150733
 21
-24.09437543890448
 31
0.0
  0
LINE
  5
18B
330
1F
100
AcDbEntity
  8
100
  6
Continuous
 62
     7
370
    30
100
AcDbLine
 10
23.90713129150733
 20
-19.67054731390448
 30
0.0
 11
26.25088129150733
 21
-21.69203168890448
 31
0.0
  0
LINE
  5
18C
330
1F
100
AcDbEntity
  8
100
  6
Continuous
 62
     7
370
    30
100
AcDbLine
 10
22.79385004150733
 20
-18.11781293890448
 30
0.0
 11
23.90713129150733
 21
-19.67054731390448
 31
0.0
  0
LINE
  5
18D
330
1F
100
AcDbEntity
  8
100
  6
Continuous
 62
     7
370
    30
100
AcDbLine
 10
22.14931879150733
 20
-16.03773481390448
 30
0.0
 11
22.79385004150733
 21
-18.11781293890448
 31
0.0
  0
LINE
  5
18E
330
1F
100
AcDbEntity
  8
100
  6
Continuous
 62
     7
370
    30
100
AcDbLine
 10
22.14931879150733
 20
-13.92835981390448
 30
0.0
 11
22.14931879150733
 21
-16.03773481390448
 31
0.0
  0
LINE
  5
18F
330
1F
100
AcDbEntity
  8
100
  6
Continuous
 62
     7
370
    30
100
AcDbLine
 10
22.58877191650733
 20
-12.99085981390448
 30
0.0
 11
22.14931879150733
 21
-13.92835981390448
 31
0.0
  0
LINE
  5
190
330
1F
100
AcDbEntity
  8
100
  6
Continuous
 62
     7
370
    30
100
AcDbLine
 10
23.37978754150733
 20
-11.32093793890448
 30
0.0
 11
22.58877191650733
 21
-12.99085981390448
 31
0.0
  0
LINE
  5
191
330
1F
100
AcDbEntity
  8
100
  6
Continuous
 62
     7
370
    30
100
AcDbLine
 10
24.49306879150733
 20
-9.826797313904478
 30
0.0
 11
23.37978754150733
 21
-11.32093793890448
 31
0.0
  0
LINE
  5
192
330
1F
100
AcDbEntity
  8
100
  6
Continuous
 62
     7
370
    30
100
AcDbLine
 10
25.66494379150733
 20
-8.567031688904478
 30
0.0
 11
24.49306879150733
 21
-9.826797313904478
 31
0.0
  0
LINE
  5
193
330
1F
100
AcDbEntity
  8
100
  6
Continuous
 62
     7
370
    30
100
AcDbLine
 10
26.91006097900733
 20
-7.614883251404478
 30
0.0
 11
25.66494379150733
 21
-8.567031688904478
 31
0.0
  0
LINE
  5
194
330
1F
100
AcDbEntity
  8
100
  6
Continuous
 62
     7
370
    30
100
AcDbLine
 10
28.82900629150733
 20
-6.281875438904478
 30
0.0
 11
26.91006097900733
 21
-7.614883251404478
 31
0.0
  0
LINE
  5
195
330
1F
100
AcDbEntity
  8
100
  6
Continuous
 62
     7
370
    30
100
AcDbLine
 10
30.41103754150733
 20
-5.461562938904478
 30
0.0
 11
28.82900629150733
 21
-6.281875438904478
 31
0.0
  0
LINE
  5
196
330
1F
100
AcDbEntity
  8
100
  6
Continuous
 62
     7
370
    30
100
AcDbLine
 10
62.37392816650733
 20
-28.66468793890448
 30
0.0
 11
60.44661164272529
 21
-28.42990239739754
 31
0.0
  0
LINE
  5
197
330
1F
100
AcDbEntity
  8
100
  6
Continuous
 62
     7
370
    30
100
AcDbLine
 10
65.15713129150734
 20
-28.84046918890448
 30
0.0
 11
62.37392816650733
 21
-28.66468793890448
 31
0.0
  0
LINE
  5
198
330
1F
100
AcDbEntity
  8
100
  6
Continuous
 62
     7
370
    30
100
AcDbLine
 10
70.16689691650734
 20
-29.13343793890448
 30
0.0
 11
65.15713129150734
 21
-28.84046918890448
 31
0.0
  0
LINE
  5
199
330
1F
100
AcDbEntity
  8
100
  6
Continuous
 62
     7
370
    30
100
AcDbLine
 10
76.02627191650734
 20
-29.25062543890448
 30
0.0
 11
70.16689691650734
 21
-29.13343793890448
 31
0.0
  0
LINE
  5
19A
330
1F
100
AcDbEntity
  8
100
  6
Continuous
 62
     7
370
    30
100
AcDbLine
 10
82.64736566650734
 20
-28.86976606390448
 30
0.0
 11
76.02627191650734
 21
-29.25062543890448
 31
0.0
  0
LINE
  5
19B
330
1F
100
AcDbEntity
  8
100
  6
Continuous
 62
     7
370
    30
100
AcDbLine
 10
89.85439691650734
 20
-28.28382856390448
 30
0.0
 11
82.64736566650734
 21
-28.86976606390448
 31
0.0
  0
LINE
  5
19C
330
1F
100
AcDbEntity
  8
100
  6
Continuous
 62
     7
370
    30
100
AcDbLine
 10
94.77627191650734
 20
-27.19984418890448
 30
0.0
 11
89.85439691650734
 21
-28.28382856390448
 31
0.0
  0
LINE
  5
19D
330
1F
100
AcDbEntity
  8
100
  6
Continuous
 62
     7
370
    30
100
AcDbLine
 10
100.1083031665073
 20
-25.73500043890448
 30
0.0
 11
94.77627191650734
 21
-27.19984418890448
 31
0.0
  0
LINE
  5
19E
330
1F
100
AcDbEntity
  8
100
  6
Continuous
 62
     7
370
    30
100
AcDbLine
 10
105.3524437915073
 20
-23.71351606390448
 30
0.0
 11
100.1083031665073
 21
-25.73500043890448
 31
0.0
  0
LINE
  5
19F
330
1F
100
AcDbEntity
  8
100
  6
Continuous
 62
     7
370
    30
100
AcDbLine
 10
108.6629906665073
 20
-21.60414106390448
 30
0.0
 11
105.3524437915073
 21
-23.71351606390448
 31
0.0
  0
LINE
  5
1A0
330
1F
100
AcDbEntity
  8
100
  6
Continuous
 62
     7
370
    30
100
AcDbLine
 10
110.5965844165073
 20
-19.81703168890448
 30
0.0
 11
108.6629906665073
 21
-21.60414106390448
 31
0.0
  0
LINE
  5
1A1
330
1F
100
AcDbEntity
  8
100
  6
Continuous
 62
     7
370
    30
100
AcDbLine
 10
111.4461937915073
 20
-18.35218793890448
 30
0.0
 11
110.5965844165073
 21
-19.81703168890448
 31
0.0
  0
LINE
  5
1A2
330
1F
100
AcDbEntity
  8
100
  6
Continuous
 62
     7
370
    30
100
AcDbLine
 10
111.7977562915073
 20
-16.68226606390448
 30
0.0
 11
111.4461937915073
 21
-18.35218793890448
 31
0.0
  0
LINE
  5
1A3
330
1F
100
AcDbEntity
  8
100
  6
Continuous
 62
     7
370
    30
100
AcDbLine
 10
111.8563500415073
 20
-15.15882856390448
 30
0.0
 11
111.7977562915073
 21
-16.68226606390448
 31
0.0
  0
LINE
  5
1A4
330
1F
100
AcDbEntity
  8
100
  6
Continuous
 62
     7
370
    30
100
AcDbLine
 10
111.2411156665073
 20
-13.48890668890448
 30
0.0
 11
111.8563500415073
 21
-15.15882856390448
 31
0.0
  0
LINE
  5
1A5
330
1F
100
AcDbEntity
  8
100
  6
Continuous
 62
     7
370
    30
100
AcDbLine
 10
110.3329125415073
 20
-12.34632856390448
 30
0.0
 11
111.2411156665073
 21
-13.48890668890448
 31
0.0
  0
LINE
  5
1A6
330
1F
100
AcDbEntity
  8
100
  6
Continuous
 62
     7
370
    30
100
AcDbLine
 10
109.5418969165073
 20
-18.23500043890448
 30
0.0
 11
110.1278344165073
 21
-17.26820356390448
 31
0.0
  0
LINE
  5
1A7
330
1F
100
AcDbEntity
  8
100
  6
Continuous
 62
     7
370
    30
100
AcDbLine
 10
107.7547875415073
 20
-20.11000043890448
 30
0.0
 11
109.5418969165073
 21
-18.23500043890448
 31
0.0
  0
LINE
  5
1A8
330
1F
100
AcDbEntity
  8
100
  6
Continuous
 62
     7
370
    30
100
AcDbLine
 10
104.8836937915073
 20
-21.92640668890448
 30
0.0
 11
107.7547875415073
 21
-20.11000043890448
 31
0.0
  0
LINE
  5
1A9
330
1F
100
AcDbEntity
  8
100
  6
Continuous
 62
     7
370
    30
100
AcDbLine
 10
101.1629906665073
 20
-23.74281293890448
 30
0.0
 11
104.8836937915073
 21
-21.92640668890448
 31
0.0
  0
LINE
  5
1AA
330
1F
100
AcDbEntity
  8
100
  6
Continuous
 62
     7
370
    30
100
AcDbLine
 10
96.15322504150734
 20
-25.44203168890448
 30
0.0
 11
101.1629906665073
 21
-23.74281293890448
 31
0.0
  0
LINE
  5
1AB
330
1F
100
AcDbEntity
  8
100
  6
Continuous
 62
     7
370
    30
100
AcDbLine
 10
92.11025629150734
 20
-26.29164106390448
 30
0.0
 11
96.15322504150734
 21
-25.44203168890448
 31
0.0
  0
LINE
  5
1AC
330
1F
100
AcDbEntity
  8
100
  6
Continuous
 62
     7
370
    30
100
AcDbLine
 10
85.37197504150734
 20
-27.31703168890448
 30
0.0
 11
92.11025629150734
 21
-26.29164106390448
 31
0.0
  0
LINE
  5
1AD
330
1F
100
AcDbEntity
  8
100
  6
Continuous
 62
     7
370
    30
100
AcDbLine
 10
80.45010004150734
 20
-27.55140668890448
 30
0.0
 11
85.37197504150734
 21
-27.31703168890448
 31
0.0
  0
LINE
  5
1AE
330
1F
100
AcDbEntity
  8
100
  6
Continuous
 62
     7
370
    30
100
AcDbLine
 10
73.74111566650734
 20
-27.61000043890448
 30
0.0
 11
80.45010004150734
 21
-27.55140668890448
 31
0.0
  0
LINE
  5
1AF
330
1F
100
AcDbEntity
  8
100
  6
Continuous
 62
     7
370
    30
100
AcDbLine
 10
69.93252191650734
 20
-27.58070356390448
 30
0.0
 11
73.74111566650734
 21
-27.61000043890448
 31
0.0
  0
LINE
  5
1B0
330
1F
100
AcDbEntity
  8
100
  6
Continuous
 62
     7
370
    30
100
AcDbLine
 10
65.03994379150734
 20
-27.25843793890448
 30
0.0
 11
69.93252191650734
 21
-27.58070356390448
 31
0.0
  0
LINE
  5
1B1
330
1F
100
AcDbEntity
  8
100
  6
Continuous
 62
     7
370
    30
100
AcDbLine
 10
60.47590847019791
 20
-26.78718742839705
 30
0.0
 11
65.03994379150734
 21
-27.25843793890448
 31
0.0
  0
LINE
  5
1B2
330
1F
100
AcDbEntity
  8
100
  6
Continuous
 62
     7
370
    30
100
AcDbLine
 10
33.48720941650733
 20
-14.16273481390448
 30
0.0
 11
33.28213129150733
 21
-12.78578168890448
 31
0.0
  0
LINE
  5
1B3
330
1F
100
AcDbEntity
  8
100
  6
Continuous
 62
     7
370
    30
100
AcDbLine
 10
34.13174066650733
 20
-15.74476606390448
 30
0.0
 11
33.48720941650733
 21
-14.16273481390448
 31
0.0
  0
LINE
  5
1B4
330
1F
100
AcDbEntity
  8
100
  6
Continuous
 62
     7
370
    30
100
AcDbLine
 10
35.36220941650733
 20
-17.56117231390448
 30
0.0
 11
34.13174066650733
 21
-15.74476606390448
 31
0.0
  0
LINE
  5
1B5
330
1F
100
AcDbEntity
  8
100
  6
Continuous
 62
     7
370
    30
100
AcDbLine
 10
37.09072504150733
 20
-19.26039106390448
 30
0.0
 11
35.36220941650733
 21
-17.56117231390448
 31
0.0
  0
LINE
  5
1B6
330
1F
100
AcDbEntity
  8
100
  6
Continuous
 62
     7
370
    30
100
AcDbLine
 10
39.31728754150733
 20
-20.57875043890448
 30
0.0
 11
37.09072504150733
 21
-19.26039106390448
 31
0.0
  0
LINE
  5
1B7
330
1F
100
AcDbEntity
  8
100
  6
Continuous
 62
     7
370
    30
100
AcDbLine
 10
43.30166254150733
 20
-22.57093793890448
 30
0.0
 11
39.31728754150733
 21
-20.57875043890448
 31
0.0
  0
LINE
  5
1B8
330
1F
100
AcDbEntity
  8
100
  6
Continuous
 62
     7
370
    30
100
AcDbLine
 10
48.51650629150733
 20
-24.38734418890448
 30
0.0
 11
43.30166254150733
 21
-22.57093793890448
 31
0.0
  0
LINE
  5
1B9
330
1F
100
AcDbEntity
  8
100
  6
Continuous
 62
     7
370
    30
100
AcDbLine
 10
56.6694150650348
 20
-26.1152345126841
 30
0.0
 11
48.51650629150733
 21
-24.38734418890448
 31
0.0
  0
LINE
  5
1BA
330
1F
100
AcDbEntity
  8
100
  6
Continuous
 62
     7
370
    30
100
AcDbLine
 10
53.40908441650733
 20
-26.99476606390448
 30
0.0
 11
56.67422957005819
 21
-27.78629902335745
 31
0.0
  0
LINE
  5
1BB
330
1F
100
AcDbEntity
  8
100
  6
Continuous
 62
     7
370
    30
100
AcDbLine
 10
47.84267816650733
 20
-25.64710981390448
 30
0.0
 11
53.40908441650733
 21
-26.99476606390448
 31
0.0
  0
LINE
  5
1BC
330
1F
100
AcDbEntity
  8
100
  6
Continuous
 62
     7
370
    30
100
AcDbLine
 10
44.29775629150733
 20
-24.53382856390448
 30
0.0
 11
47.84267816650733
 21
-25.64710981390448
 31
0.0
  0
LINE
  5
1BD
330
1F
100
AcDbEntity
  8
100
  6
Continuous
 62
     7
370
    30
100
AcDbLine
 10
40.16689691650733
 20
-22.68812543890448
 30
0.0
 11
44.29775629150733
 21
-24.53382856390448
 31
0.0
  0
LINE
  5
1BE
330
1F
100
AcDbEntity
  8
100
  6
Continuous
 62
     7
370
    30
100
AcDbLine
 10
36.79775629150733
 20
-20.69593793890448
 30
0.0
 11
40.16689691650733
 21
-22.68812543890448
 31
0.0
  0
LINE
  5
1BF
330
1F
100
AcDbEntity
  8
100
  6
Continuous
 62
     7
370
    30
100
AcDbLine
 10
34.62978754150733
 20
-18.82093793890448
 30
0.0
 11
36.79775629150733
 21
-20.69593793890448
 31
0.0
  0
LINE
  5
1C0
330
1F
100
AcDbEntity
  8
100
  6
Continuous
 62
     7
370
    30
100
AcDbLine
 10
33.16494379150733
 20
-17.09242231390448
 30
0.0
 11
34.62978754150733
 21
-18.82093793890448
 31
0.0
  0
LINE
  5
1C1
330
1F
100
AcDbEntity
  8
100
  6
Continuous
 62
     7
370
    30
100
AcDbLine
 10
32.43252191650733
 20
-14.69007856390448
 30
0.0
 11
33.16494379150733
 21
-17.09242231390448
 31
0.0
  0
LINE
  5
1C2
330
1F
100
AcDbEntity
  8
100
  6
Continuous
 62
     7
370
    30
100
AcDbLine
 10
32.57900629150733
 20
-12.66859418890448
 30
0.0
 11
32.43252191650733
 21
-14.69007856390448
 31
0.0
  0
LINE
  5
1C3
330
1F
100
AcDbEntity
  8
100
  6
Continuous
 62
     7
370
    30
100
AcDbLine
 10
33.31142816650733
 20
-10.91078168890448
 30
0.0
 11
32.57900629150733
 21
-12.66859418890448
 31
0.0
  0
LINE
  5
1C4
330
1F
100
AcDbEntity
  8
100
  6
Continuous
 62
     7
370
    30
100
AcDbLine
 10
53.17470941650733
 20
-23.97718793890448
 30
0.0
 11
56.64608124401133
 21
-24.70937179602059
 31
0.0
  0
LINE
  5
1C5
330
1F
100
AcDbEntity
  8
100
  6
Continuous
 62
     7
370
    30
100
AcDbLine
 10
50.03994379150733
 20
-23.18617231390448
 30
0.0
 11
53.17470941650733
 21
-23.97718793890448
 31
0.0
  0
LINE
  5
1C6
330
1F
100
AcDbEntity
  8
100
  6
Continuous
 62
     7
370
    30
100
AcDbLine
 10
46.52431879150733
 20
-22.19007856390448
 30
0.0
 11
50.03994379150733
 21
-23.18617231390448
 31
0.0
  0
LINE
  5
1C7
330
1F
100
AcDbEntity
  8
100
  6
Continuous
 62
     7
370
    30
100
AcDbLine
 10
42.45205316650733
 20
-20.63734418890448
 30
0.0
 11
46.52431879150733
 21
-22.19007856390448
 31
0.0
  0
LINE
  5
1C8
330
1F
100
AcDbEntity
  8
100
  6
Continuous
 62
     7
370
    30
100
AcDbLine
 10
39.25869379150733
 20
-19.02601606390448
 30
0.0
 11
42.45205316650733
 21
-20.63734418890448
 31
0.0
  0
LINE
  5
1C9
330
1F
100
AcDbEntity
  8
100
  6
Continuous
 62
     7
370
    30
100
AcDbLine
 10
37.06142816650733
 20
-17.47328168890448
 30
0.0
 11
39.25869379150733
 21
-19.02601606390448
 31
0.0
  0
LINE
  5
1CA
330
1F
100
AcDbEntity
  8
100
  6
Continuous
 62
     7
370
    30
100
AcDbLine
 10
34.89345941650733
 20
-15.04164106390448
 30
0.0
 11
37.06142816650733
 21
-17.47328168890448
 31
0.0
  0
LINE
  5
1CB
330
1F
100
AcDbEntity
  8
100
  6
Continuous
 62
     7
370
    30
100
AcDbLine
 10
33.60439691650733
 20
-12.66859418890448
 30
0.0
 11
34.89345941650733
 21
-15.04164106390448
 31
0.0
  0
LINE
  5
1CC
330
1F
100
AcDbEntity
  8
100
  6
Continuous
 62
     7
370
    30
100
AcDbLine
 10
33.31142816650733
 20
-10.91078168890448
 30
0.0
 11
33.60439691650733
 21
-12.66859418890448
 31
0.0
  0
LINE
  5
1CD
330
1F
100
AcDbEntity
  8
100
  6
Continuous
 62
     7
370
    30
100
AcDbLine
 10
33.60439691650733
 20
-8.830703563904478
 30
0.0
 11
33.31142816650733
 21
-10.91078168890448
 31
0.0
  0
LINE
  5
1CE
330
1F
100
AcDbEntity
  8
100
  6
Continuous
 62
     7
370
    30
100
AcDbLine
 10
34.24892816650733
 20
-7.292617626404478
 30
0.0
 11
33.60439691650733
 21
-8.830703563904478
 31
0.0
  0
LINE
  5
1CF
330
1F
100
AcDbEntity
  8
100
  6
Continuous
 62
     7
370
    30
100
AcDbLine
 10
110.3329125415073
 20
-12.34632856390448
 30
0.0
 11
109.9520531665073
 21
-10.47132856390448
 31
0.0
  0
LINE
  5
1D0
330
1F
100
AcDbEntity
  8
100
  6
Continuous
 62
     7
370
    30
100
AcDbLine
 10
110.2743187915073
 20
-14.16273481390448
 30
0.0
 11
110.3329125415073
 21
-12.34632856390448
 31
0.0
  0
LINE
  5
1D1
330
1F
100
AcDbEntity
  8
100
  6
Continuous
 62
     7
370
    30
100
AcDbLine
 10
110.0985375415073
 20
-16.21351606390448
 30
0.0
 11
110.2743187915073
 21
-14.16273481390448
 31
0.0
  0
LINE
  5
1D2
330
1F
100
AcDbEntity
  8
100
  6
Continuous
 62
     7
370
    30
100
AcDbLine
 10
108.4579125415073
 20
-18.26429731390448
 30
0.0
 11
110.0985375415073
 21
-16.21351606390448
 31
0.0
  0
LINE
  5
1D3
330
1F
100
AcDbEntity
  8
100
  6
Continuous
 62
     7
370
    30
100
AcDbLine
 10
105.7040062915073
 20
-20.49085981390448
 30
0.0
 11
108.4579125415073
 21
-18.26429731390448
 31
0.0
  0
LINE
  5
1D4
330
1F
100
AcDbEntity
  8
100
  6
Continuous
 62
     7
370
    30
100
AcDbLine
 10
100.4305687915073
 20
-23.01039106390448
 30
0.0
 11
105.7040062915073
 21
-20.49085981390448
 31
0.0
  0
LINE
  5
1D5
330
1F
100
AcDbEntity
  8
100
  6
Continuous
 62
     7
370
    30
100
AcDbLine
 10
94.27822504150734
 20
-24.88539106390448
 30
0.0
 11
100.4305687915073
 21
-23.01039106390448
 31
0.0
  0
LINE
  5
1D6
330
1F
100
AcDbEntity
  8
100
  6
Continuous
 62
     7
370
    30
100
AcDbLine
 10
84.49306879150734
 20
-26.29164106390448
 30
0.0
 11
94.27822504150734
 21
-24.88539106390448
 31
0.0
  0
LINE
  5
1D7
330
1F
100
AcDbEntity
  8
100
  6
Continuous
 62
     7
370
    30
100
AcDbLine
 10
75.11806879150734
 20
-26.64320356390448
 30
0.0
 11
84.49306879150734
 21
-26.29164106390448
 31
0.0
  0
LINE
  5
1D8
330
1F
100
AcDbEntity
  8
100
  6
Continuous
 62
     7
370
    30
100
AcDbLine
 10
67.38369379150734
 20
-26.29164106390448
 30
0.0
 11
75.11806879150734
 21
-26.64320356390448
 31
0.0
  0
LINE
  5
1D9
330
1F
100
AcDbEntity
  8
100
  6
Continuous
 62
     7
370
    30
100
AcDbLine
 10
60.49733314764035
 20
-25.58587515751704
 30
0.0
 11
67.38369379150734
 21
-26.29164106390448
 31
0.0
  0
LINE
  5
1DA
330
1F
100
AcDbEntity
  8
100
  6
Continuous
 62
     7
370
    30
100
AcDbLine
 10
64.74697504150734
 20
-22.77601606390448
 30
0.0
 11
60.55583364892114
 21
-22.30566847855899
 31
0.0
  0
LINE
  5
1DB
330
1F
100
AcDbEntity
  8
100
  6
Continuous
 62
     7
370
    30
100
AcDbLine
 10
68.49697504150734
 20
-23.06898481390448
 30
0.0
 11
64.74697504150734
 21
-22.77601606390448
 31
0.0
  0
LINE
  5
1DC
330
1F
100
AcDbEntity
  8
100
  6
Continuous
 62
     7
370
    30
100
AcDbLine
 10
74.82510004150734
 20
-23.42054731390448
 30
0.0
 11
68.49697504150734
 21
-23.06898481390448
 31
0.0
  0
LINE
  5
1DD
330
1F
100
AcDbEntity
  8
100
  6
Continuous
 62
     7
370
    30
100
AcDbLine
 10
81.56338129150734
 20
-23.18617231390448
 30
0.0
 11
74.82510004150734
 21
-23.42054731390448
 31
0.0
  0
LINE
  5
1DE
330
1F
100
AcDbEntity
  8
100
  6
Continuous
 62
     7
370
    30
100
AcDbLine
 10
87.36416254150734
 20
-22.65882856390448
 30
0.0
 11
81.56338129150734
 21
-23.18617231390448
 31
0.0
  0
LINE
  5
1DF
330
1F
100
AcDbEntity
  8
100
  6
Continuous
 62
     7
370
    30
100
AcDbLine
 10
92.81338129150734
 20
-21.89710981390448
 30
0.0
 11
87.36416254150734
 21
-22.65882856390448
 31
0.0
  0
LINE
  5
1E0
330
1F
100
AcDbEntity
  8
100
  6
Continuous
 62
     7
370
    30
100
AcDbLine
 10
97.44228754150734
 20
-20.54945356390448
 30
0.0
 11
92.81338129150734
 21
-21.89710981390448
 31
0.0
  0
LINE
  5
1E1
330
1F
100
AcDbEntity
  8
100
  6
Continuous
 62
     7
370
    30
100
AcDbLine
 10
101.9540062915073
 20
-19.02601606390448
 30
0.0
 11
97.44228754150734
 21
-20.54945356390448
 31
0.0
  0
LINE
  5
1E2
330
1F
100
AcDbEntity
  8
100
  6
Continuous
 62
     7
370
    30
100
AcDbLine
 10
104.3563500415073
 20
-17.38539106390448
 30
0.0
 11
101.9540062915073
 21
-19.02601606390448
 31
0.0
  0
LINE
  5
1E3
330
1F
100
AcDbEntity
  8
100
  6
Continuous
 62
     7
370
    30
100
AcDbLine
 10
106.7586937915073
 20
-15.39320356390448
 30
0.0
 11
104.3563500415073
 21
-17.38539106390448
 31
0.0
  0
LINE
  5
1E4
330
1F
100
AcDbEntity
  8
100
  6
Continuous
 62
     7
370
    30
100
AcDbLine
 10
108.8680687915073
 20
-12.58070356390448
 30
0.0
 11
106.7586937915073
 21
-15.39320356390448
 31
0.0
  0
LINE
  5
1E5
330
1F
100
AcDbEntity
  8
100
  6
Continuous
 62
     7
370
    30
100
AcDbLine
 10
109.9520531665073
 20
-10.47132856390448
 30
0.0
 11
108.8680687915073
 21
-12.58070356390448
 31
0.0
  0
LINE
  5
1E6
330
1F
100
AcDbEntity
  8
100
  6
Continuous
 62
     7
370
    30
100
AcDbLine
 10
107.8719750415073
 20
-12.34632856390448
 30
0.0
 11
109.9520531665073
 21
-10.47132856390448
 31
0.0
  0
LINE
  5
1E7
330
1F
100
AcDbEntity
  8
100
  6
Continuous
 62
     7
370
    30
100
AcDbLine
 10
103.9461937915073
 20
-14.45570356390448
 30
0.0
 11
107.8719750415073
 21
-12.34632856390448
 31
0.0
  0
LINE
  5
1E8
330
1F
100
AcDbEntity
  8
100
  6
Continuous
 62
     7
370
    30
100
AcDbLine
 10
95.91885004150734
 20
-17.67835981390448
 30
0.0
 11
103.9461937915073
 21
-14.45570356390448
 31
0.0
  0
LINE
  5
1E9
330
1F
100
AcDbEntity
  8
100
  6
Continuous
 62
     7
370
    30
100
AcDbLine
 10
87.59853754150734
 20
-18.85023481390448
 30
0.0
 11
95.91885004150734
 21
-17.67835981390448
 31
0.0
  0
LINE
  5
1EA
330
1F
100
AcDbEntity
  8
100
  6
Continuous
 62
     7
370
    30
100
AcDbLine
 10
79.51260004150734
 20
-19.49476606390448
 30
0.0
 11
87.59853754150734
 21
-18.85023481390448
 31
0.0
  0
LINE
  5
1EB
330
1F
100
AcDbEntity
  8
100
  6
Continuous
 62
     7
370
    30
100
AcDbLine
 10
71.48525629150734
 20
-19.55335981390448
 30
0.0
 11
79.51260004150734
 21
-19.49476606390448
 31
0.0
  0
LINE
  5
1EC
330
1F
100
AcDbEntity
  8
100
  6
Continuous
 62
     7
370
    30
100
AcDbLine
 10
65.03994379150734
 20
-19.31898481390448
 30
0.0
 11
71.48525629150734
 21
-19.55335981390448
 31
0.0
  0
LINE
  5
1ED
330
1F
100
AcDbEntity
  8
100
  6
Continuous
 62
     7
370
    30
100
AcDbLine
 10
60.62110575622483
 20
-18.64576817617333
 30
0.0
 11
65.03994379150734
 21
-19.31898481390448
 31
0.0
  0
LINE
  5
1EE
330
1F
100
AcDbEntity
  8
100
  6
Continuous
 62
     7
370
    30
100
AcDbLine
 10
35.77236566650733
 20
-9.592422313904478
 30
0.0
 11
34.24892816650733
 21
-7.292617626404478
 31
0.0
  0
LINE
  5
1EF
330
1F
100
AcDbEntity
  8
100
  6
Continuous
 62
     7
370
    30
100
AcDbLine
 10
38.40908441650733
 20
-11.93617231390448
 30
0.0
 11
35.77236566650733
 21
-9.592422313904478
 31
0.0
  0
LINE
  5
1F0
330
1F
100
AcDbEntity
  8
100
  6
Continuous
 62
     7
370
    30
100
AcDbLine
 10
42.39345941650733
 20
-13.75257856390448
 30
0.0
 11
38.40908441650733
 21
-11.93617231390448
 31
0.0
  0
LINE
  5
1F1
330
1F
100
AcDbEntity
  8
100
  6
Continuous
 62
     7
370
    30
100
AcDbLine
 10
50.83095941650733
 20
-16.62367231390448
 30
0.0
 11
42.39345941650733
 21
-13.75257856390448
 31
0.0
  0
LINE
  5
1F2
330
1F
100
AcDbEntity
  8
100
  6
Continuous
 62
     7
370
    30
100
AcDbLine
 10
56.58866775897729
 20
-17.9714313509407
 30
0.0
 11
50.83095941650733
 21
-16.62367231390448
 31
0.0
  0
LINE
  5
1F3
330
1F
100
AcDbEntity
  8
100
  6
Continuous
 62
     7
370
    30
100
AcDbLine
 10
54.11220941650733
 20
-21.07679731390448
 30
0.0
 11
56.59259176736022
 21
-21.48663082779074
 31
0.0
  0
LINE
  5
1F4
330
1F
100
AcDbEntity
  8
100
  6
Continuous
 62
     7
370
    30
100
AcDbLine
 10
48.60439691650733
 20
-19.78773481390448
 30
0.0
 11
54.11220941650733
 21
-21.07679731390448
 31
0.0
  0
LINE
  5
1F5
330
1F
100
AcDbEntity
  8
100
  6
Continuous
 62
     7
370
    30
100
AcDbLine
 10
41.98330316650733
 20
-17.44398481390448
 30
0.0
 11
48.60439691650733
 21
-19.78773481390448
 31
0.0
  0
LINE
  5
1F6
330
1F
100
AcDbEntity
  8
100
  6
Continuous
 62
     7
370
    30
100
AcDbLine
 10
38.05752191650733
 20
-14.57289106390448
 30
0.0
 11
41.98330316650733
 21
-17.44398481390448
 31
0.0
  0
LINE
  5
1F7
330
1F
100
AcDbEntity
  8
100
  6
Continuous
 62
     7
370
    30
100
AcDbLine
 10
35.36220941650733
 20
-10.52992231390448
 30
0.0
 11
38.05752191650733
 21
-14.57289106390448
 31
0.0
  0
LINE
  5
1F8
330
1F
100
AcDbEntity
  8
100
  6
Continuous
 62
     7
370
    30
100
AcDbLine
 10
34.24892816650733
 20
-7.292617626404478
 30
0.0
 11
35.36220941650733
 21
-10.52992231390448
 31
0.0
  0
LINE
  5
1F9
330
1F
100
AcDbEntity
  8
100
  6
Continuous
 62
     7
370
    30
100
AcDbLine
 10
60.44033441650733
 20
-28.78187543890448
 30
0.0
 11
60.85049066650733
 21
-5.783828563904478
 31
0.0
  0
LINE
  5
1FA
330
1F
100
AcDbEntity
  8
100
  6
Continuous
 62
     7
370
    30
100
AcDbLine
 10
60.79189691650733
 20
-29.16273481390448
 30
0.0
 11
60.44033441650733
 21
-28.78187543890448
 31
0.0
  0
LINE
  5
1FB
330
1F
100
AcDbEntity
  8
100
  6
Continuous
 62
     7
370
    30
100
AcDbLine
 10
60.99697504150733
 20
-30.15882856390448
 30
0.0
 11
60.79189691650733
 21
-29.16273481390448
 31
0.0
  0
LINE
  5
1FC
330
1F
100
AcDbEntity
  8
100
  6
Continuous
 62
     7
370
    30
100
AcDbLine
 10
60.26455316650733
 20
-30.86195356390448
 30
0.0
 11
60.99697504150733
 21
-30.15882856390448
 31
0.0
  0
LINE
  5
1FD
330
1F
100
AcDbEntity
  8
100
  6
Continuous
 62
     7
370
    30
100
AcDbLine
 10
58.62392816650733
 20
-31.00843793890448
 30
0.0
 11
60.26455316650733
 21
-30.86195356390448
 31
0.0
  0
LINE
  5
1FE
330
1F
100
AcDbEntity
  8
100
  6
Continuous
 62
     7
370
    30
100
AcDbLine
 10
57.15908441650733
 20
-31.00843793890448
 30
0.0
 11
58.62392816650733
 21
-31.00843793890448
 31
0.0
  0
LINE
  5
1FF
330
1F
100
AcDbEntity
  8
100
  6
Continuous
 62
     7
370
    30
100
AcDbLine
 10
56.57314691650733
 20
-30.36390668890448
 30
0.0
 11
57.15908441650733
 21
-31.00843793890448
 31
0.0
  0
LINE
  5
200
330
1F
100
AcDbEntity
  8
100
  6
Continuous
 62
     7
370
    30
100
AcDbLine
 10
56.69033441650733
 20
-27.37562543890448
 30
0.0
 11
56.57314691650733
 21
-30.36390668890448
 31
0.0
  0
LINE
  5
201
330
1F
100
AcDbEntity
  8
100
  6
Continuous
 62
     7
370
    30
100
AcDbLine
 10
56.57314691650733
 20
-20.31507856390448
 30
0.0
 11
56.69033441650733
 21
-27.37562543890448
 31
0.0
  0
LINE
  5
202
330
1F
100
AcDbEntity
  8
100
  6
Continuous
 62
     7
370
    30
100
AcDbLine
 10
56.63174066650733
 20
-11.46742231390448
 30
0.0
 11
56.57314691650733
 21
-20.31507856390448
 31
0.0
  0
LINE
  5
203
330
1F
100
AcDbEntity
  8
100
  6
Continuous
 62
     7
370
    30
100
AcDbLine
 10
56.60244379150733
 20
-6.281875438904478
 30
0.0
 11
56.63174066650733
 21
-11.46742231390448
 31
0.0
  0
LINE
  5
204
330
1F
100
AcDbEntity
  8
100
  6
Continuous
 62
     7
370
    30
100
AcDbLine
 10
30.41103754150733
 20
-5.461562938904478
 30
0.0
 11
30.43746853491962
 21
9.116848245419405
 31
0.0
  0
LINE
  5
205
330
1F
100
AcDbEntity
  8
100
  6
Continuous
 62
     7
370
    30
100
AcDbLine
 10
30.08877191650733
 20
-5.681289501404478
 30
0.0
 11
30.41103754150733
 21
-5.461562938904478
 31
0.0
  0
LINE
  5
206
330
1F
100
AcDbEntity
  8
100
  6
Continuous
 62
     7
370
    30
100
AcDbLine
 10
30.04482660400733
 20
-7.878555126404478
 30
0.0
 11
30.08877191650733
 21
-5.681289501404478
 31
0.0
  0
LINE
  5
207
330
1F
100
AcDbEntity
  8
100
  6
Continuous
 62
     7
370
    30
100
AcDbLine
 10
30.26455316650733
 20
-8.244766063904478
 30
0.0
 11
30.04482660400733
 21
-7.878555126404478
 31
0.0
  0
LINE
  5
208
330
1F
100
AcDbEntity
  8
100
  6
Continuous
 62
     7
370
    30
100
AcDbLine
 10
31.40713129150733
 20
-8.420547313904478
 30
0.0
 11
30.26455316650733
 21
-8.244766063904478
 31
0.0
  0
LINE
  5
209
330
1F
100
AcDbEntity
  8
100
  6
Continuous
 62
     7
370
    30
100
AcDbLine
 10
32.87197504150733
 20
-8.391250438904478
 30
0.0
 11
31.40713129150733
 21
-8.420547313904478
 31
0.0
  0
LINE
  5
20A
330
1F
100
AcDbEntity
  8
100
  6
Continuous
 62
     7
370
    30
100
AcDbLine
 10
33.58974847900733
 20
-7.688125438904478
 30
0.0
 11
32.87197504150733
 21
-8.391250438904478
 31
0.0
  0
LINE
  5
20B
330
1F
100
AcDbEntity
  8
100
  6
Continuous
 62
     7
370
    30
100
AcDbLine
 10
33.54580316650733
 20
-6.355117626404478
 30
0.0
 11
33.58974847900733
 21
-7.688125438904478
 31
0.0
  0
LINE
  5
20C
330
1F
100
AcDbEntity
  8
100
  6
Continuous
 62
     7
370
    30
100
AcDbLine
 10
33.42861566650733
 20
-4.480117626404478
 30
0.0
 11
33.54580316650733
 21
-6.355117626404478
 31
0.0
  0
LINE
  5
20D
330
1F
100
AcDbEntity
  8
100
  6
Continuous
 62
     7
370
    30
100
AcDbLine
 10
33.40814978837624
 20
7.586098648197023
 30
0.0
 11
33.42861566650733
 21
-4.480117626404478
 31
0.0
  0
LINE
  5
20E
330
1F
100
AcDbEntity
  8
100
  6
Continuous
 62
     7
370
    30
100
AcDbLine
 10
34.23582384272834
 20
-3.747744194121822
 30
0.0
 11
33.34072504150733
 21
-4.011367626404478
 31
0.0
  0
LINE
  5
20F
330
1F
100
AcDbEntity
  8
100
  6
Continuous
 62
     7
370
    30
100
AcDbLine
 10
34.19494529097871
 20
7.310383984891871
 30
0.0
 11
34.24892816650733
 21
-7.292617626404478
 31
0.0
  0
LINE
  5
210
330
1F
100
AcDbEntity
  8
100
  6
Continuous
 62
     7
370
    30
100
AcDbLine
 10
117.0126000415073
 20
-19.12855512640448
 30
0.0
 11
117.7450219165073
 21
-18.60121137640448
 31
0.0
  0
LINE
  5
211
330
1F
100
AcDbEntity
  8
100
  6
Continuous
 62
     7
370
    30
100
AcDbLine
 10
115.3719750415073
 20
-19.12855512640448
 30
0.0
 11
117.0126000415073
 21
-19.12855512640448
 31
0.0
  0
LINE
  5
212
330
1F
100
AcDbEntity
  8
100
  6
Continuous
 62
     7
370
    30
100
AcDbLine
 10
114.0243187915073
 20
-18.77699262640448
 30
0.0
 11
115.3719750415073
 21
-19.12855512640448
 31
0.0
  0
LINE
  5
213
330
1F
100
AcDbEntity
  8
100
  6
Continuous
 62
     7
370
    30
100
AcDbLine
 10
110.4980573975354
 20
4.237376487660725
 30
0.0
 11
109.9520531665073
 21
-10.47132856390448
 31
0.0
  0
LINE
  5
214
330
1F
100
AcDbEntity
  8
100
  6
Continuous
 62
     7
370
    30
100
AcDbLine
 10
119.9715844165073
 20
16.07164018609552
 30
0.0
 11
118.9016084677372
 21
17.3644837003075
 31
0.0
  0
LINE
  5
215
330
1F
100
AcDbEntity
  8
100
  6
Continuous
 62
     7
370
    30
100
AcDbLine
 10
120.8504906665073
 20
14.60679643609552
 30
0.0
 11
119.9715844165073
 21
16.07164018609552
 31
0.0
  0
LINE
  5
216
330
1F
100
AcDbEntity
  8
100
  6
Continuous
 62
     7
370
    30
100
AcDbLine
 10
120.9676781665073
 20
12.32164018609552
 30
0.0
 11
120.8504906665073
 21
14.60679643609552
 31
0.0
  0
LINE
  5
217
330
1F
100
AcDbEntity
  8
100
  6
Continuous
 62
     7
370
    30
100
AcDbLine
 10
120.3231469165073
 20
9.802108936095522
 30
0.0
 11
120.9676781665073
 21
12.32164018609552
 31
0.0
  0
LINE
  5
218
330
1F
100
AcDbEntity
  8
100
  6
Continuous
 62
     7
370
    30
100
AcDbLine
 10
118.2723656665073
 20
7.516952686095522
 30
0.0
 11
120.3231469165073
 21
9.802108936095522
 31
0.0
  0
LINE
  5
219
330
1F
100
AcDbEntity
  8
100
  6
Continuous
 62
     7
370
    30
100
AcDbLine
 10
112.8817406665073
 20
5.056015186095522
 30
0.0
 11
118.2723656665073
 21
7.516952686095522
 31
0.0
  0
LINE
  5
21A
330
1F
100
AcDbEntity
  8
100
  6
Continuous
 62
     7
370
    30
100
AcDbLine
 10
107.0809594165073
 20
3.063827686095522
 30
0.0
 11
112.8817406665073
 21
5.056015186095522
 31
0.0
  0
LINE
  5
21B
330
1F
100
AcDbEntity
  8
100
  6
Continuous
 62
     7
370
    30
100
AcDbLine
 10
98.93642816650734
 20
1.891952686095522
 30
0.0
 11
107.0809594165073
 21
3.063827686095522
 31
0.0
  0
LINE
  5
21C
330
1F
100
AcDbEntity
  8
100
  6
Continuous
 62
     7
370
    30
100
AcDbLine
 10
89.62002191650734
 20
0.9544526860955216
 30
0.0
 11
98.93642816650734
 21
1.891952686095522
 31
0.0
  0
LINE
  5
21D
330
1F
100
AcDbEntity
  8
100
  6
Continuous
 62
     7
370
    30
100
AcDbLine
 10
83.81924066650734
 20
0.9544526860955216
 30
0.0
 11
89.62002191650734
 21
0.9544526860955216
 31
0.0
  0
LINE
  5
21E
330
1F
100
AcDbEntity
  8
100
  6
Continuous
 62
     7
370
    30
100
AcDbLine
 10
72.56924066650734
 20
1.071640186095522
 30
0.0
 11
83.81924066650734
 21
0.9544526860955216
 31
0.0
  0
LINE
  5
21F
330
1F
100
AcDbEntity
  8
100
  6
Continuous
 62
     7
370
    30
100
AcDbLine
 10
62.19814691650733
 20
1.774765186095522
 30
0.0
 11
72.56924066650734
 21
1.071640186095522
 31
0.0
  0
LINE
  5
220
330
1F
100
AcDbEntity
  8
100
  6
Continuous
 62
     7
370
    30
100
AcDbLine
 10
58.79970941650733
 20
2.067733936095522
 30
0.0
 11
62.19814691650733
 21
1.774765186095522
 31
0.0
  0
LINE
  5
221
330
1F
100
AcDbEntity
  8
100
  6
Continuous
 62
     7
370
    30
100
AcDbLine
 10
50.24502191650733
 20
3.239608936095522
 30
0.0
 11
58.79970941650733
 21
2.067733936095522
 31
0.0
  0
LINE
  5
222
330
1F
100
AcDbEntity
  8
100
  6
Continuous
 62
     7
370
    30
100
AcDbLine
 10
42.15908441650733
 20
4.880233936095522
 30
0.0
 11
50.24502191650733
 21
3.239608936095522
 31
0.0
  0
LINE
  5
223
330
1F
100
AcDbEntity
  8
100
  6
Continuous
 62
     7
370
    30
100
AcDbLine
 10
36.19717035400733
 20
6.608749561095522
 30
0.0
 11
42.15908441650733
 21
4.880233936095522
 31
0.0
  0
LINE
  5
224
330
1F
100
AcDbEntity
  8
100
  6
Continuous
 62
     7
370
    30
100
AcDbLine
 10
32.76943597900733
 20
7.809921436095522
 30
0.0
 11
36.19717035400733
 21
6.608749561095522
 31
0.0
  0
LINE
  5
225
330
1F
100
AcDbEntity
  8
100
  6
Continuous
 62
     7
370
    30
100
AcDbLine
 10
30.10342035400733
 20
9.304062061095522
 30
0.0
 11
32.76943597900733
 21
7.809921436095522
 31
0.0
  0
LINE
  5
226
330
1F
100
AcDbEntity
  8
100
  6
Continuous
 62
     7
370
    30
100
AcDbLine
 10
27.97939691650733
 20
10.76890581109552
 30
0.0
 11
30.10342035400733
 21
9.304062061095522
 31
0.0
  0
LINE
  5
227
330
1F
100
AcDbEntity
  8
100
  6
Continuous
 62
     7
370
    30
100
AcDbLine
 10
26.42666254150733
 20
12.13121049859552
 30
0.0
 11
27.97939691650733
 21
10.76890581109552
 31
0.0
  0
LINE
  5
228
330
1F
100
AcDbEntity
  8
100
  6
Continuous
 62
     7
370
    30
100
AcDbLine
 10
25.09365472900733
 20
13.74253862359552
 30
0.0
 11
26.42666254150733
 21
12.13121049859552
 31
0.0
  0
LINE
  5
229
330
1F
100
AcDbEntity
  8
100
  6
Continuous
 62
     7
370
    30
100
AcDbLine
 10
24.62490472900733
 20
14.97300737359552
 30
0.0
 11
25.09365472900733
 21
13.74253862359552
 31
0.0
  0
LINE
  5
22A
330
1F
100
AcDbEntity
  8
100
  6
Continuous
 62
     7
370
    30
100
AcDbLine
 10
24.61025629150733
 20
16.52574174859552
 30
0.0
 11
24.62490472900733
 21
14.97300737359552
 31
0.0
  0
LINE
  5
22B
330
1F
100
AcDbEntity
  8
100
  6
Continuous
 62
     7
370
    30
100
AcDbLine
 10
24.78603754150733
 20
17.87339799859552
 30
0.0
 11
24.61025629150733
 21
16.52574174859552
 31
0.0
  0
LINE
  5
22C
330
1F
100
AcDbEntity
  8
100
  6
Continuous
 62
     7
370
    30
100
AcDbLine
 10
25.19619379150733
 20
18.67906206109552
 30
0.0
 11
24.78603754150733
 21
17.87339799859552
 31
0.0
  0
LINE
  5
22D
330
1F
100
AcDbEntity
  8
100
  6
Continuous
 62
     7
370
    30
100
AcDbLine
 10
26.13369379150733
 20
19.77769487359552
 30
0.0
 11
25.19619379150733
 21
18.67906206109552
 31
0.0
  0
LINE
  5
22E
330
1F
100
AcDbEntity
  8
100
  6
Continuous
 62
     7
370
    30
100
AcDbLine
 10
27.46670160400733
 20
21.03746049859552
 30
0.0
 11
26.13369379150733
 21
19.77769487359552
 31
0.0
  0
LINE
  5
22F
330
1F
100
AcDbEntity
  8
100
  6
Continuous
 62
     7
370
    30
100
AcDbLine
 10
29.59072504150733
 20
22.31187456109552
 30
0.0
 11
27.46670160400733
 21
21.03746049859552
 31
0.0
  0
LINE
  5
230
330
1F
100
AcDbEntity
  8
100
  6
Continuous
 62
     7
370
    30
100
AcDbLine
 10
28.75576410400733
 20
17.68296831109552
 30
0.0
 11
30.30849847900733
 21
18.53257768609552
 31
0.0
  0
LINE
  5
231
330
1F
100
AcDbEntity
  8
100
  6
Continuous
 62
     7
370
    30
100
AcDbLine
 10
28.19912347900733
 20
16.86265581109552
 30
0.0
 11
28.75576410400733
 21
17.68296831109552
 31
0.0
  0
LINE
  5
232
330
1F
100
AcDbEntity
  8
100
  6
Continuous
 62
     7
370
    30
100
AcDbLine
 10
28.81435785400733
 20
15.54429643609552
 30
0.0
 11
28.19912347900733
 21
16.86265581109552
 31
0.0
  0
LINE
  5
233
330
1F
100
AcDbEntity
  8
100
  6
Continuous
 62
     7
370
    30
100
AcDbLine
 10
30.74795160400733
 20
14.16734331109552
 30
0.0
 11
28.81435785400733
 21
15.54429643609552
 31
0.0
  0
LINE
  5
234
330
1F
100
AcDbEntity
  8
100
  6
Continuous
 62
     7
370
    30
100
AcDbLine
 10
33.76552972900733
 20
12.73179643609552
 30
0.0
 11
30.74795160400733
 21
14.16734331109552
 31
0.0
  0
LINE
  5
235
330
1F
100
AcDbEntity
  8
100
  6
Continuous
 62
     7
370
    30
100
AcDbLine
 10
34.24892816650733
 20
12.42417924859552
 30
0.0
 11
33.76552972900733
 21
12.73179643609552
 31
0.0
  0
LINE
  5
236
330
1F
100
AcDbEntity
  8
100
  6
Continuous
 62
     7
370
    30
100
AcDbLine
 10
38.77529535400733
 20
10.85679643609552
 30
0.0
 11
34.24892816650733
 21
12.42417924859552
 31
0.0
  0
LINE
  5
237
330
1F
100
AcDbEntity
  8
100
  6
Continuous
 62
     7
370
    30
100
AcDbLine
 10
43.99013910400733
 20
9.538437061095522
 30
0.0
 11
38.77529535400733
 21
10.85679643609552
 31
0.0
  0
LINE
  5
238
330
1F
100
AcDbEntity
  8
100
  6
Continuous
 62
     7
370
    30
100
AcDbLine
 10
49.67373285400733
 20
8.454452686095522
 30
0.0
 11
43.99013910400733
 21
9.538437061095522
 31
0.0
  0
LINE
  5
239
330
1F
100
AcDbEntity
  8
100
  6
Continuous
 62
     7
370
    30
100
AcDbLine
 10
57.48135004150733
 20
7.385116748595522
 30
0.0
 11
49.67373285400733
 21
8.454452686095522
 31
0.0
  0
LINE
  5
23A
330
1F
100
AcDbEntity
  8
100
  6
Continuous
 62
     7
370
    30
100
AcDbLine
 10
61.50967035400733
 20
6.828476123595522
 30
0.0
 11
57.48135004150733
 21
7.385116748595522
 31
0.0
  0
LINE
  5
23B
330
1F
100
AcDbEntity
  8
100
  6
Continuous
 62
     7
370
    30
100
AcDbLine
 10
64.84951410400734
 20
6.579452686095522
 30
0.0
 11
61.50967035400733
 21
6.828476123595522
 31
0.0
  0
LINE
  5
23C
330
1F
100
AcDbEntity
  8
100
  6
Continuous
 62
     7
370
    30
100
AcDbLine
 10
69.59560785400734
 20
6.286483936095522
 30
0.0
 11
64.84951410400734
 21
6.579452686095522
 31
0.0
  0
LINE
  5
23D
330
1F
100
AcDbEntity
  8
100
  6
Continuous
 62
     7
370
    30
100
AcDbLine
 10
77.32998285400734
 20
5.993515186095522
 30
0.0
 11
69.59560785400734
 21
6.286483936095522
 31
0.0
  0
LINE
  5
23E
330
1F
100
AcDbEntity
  8
100
  6
Continuous
 62
     7
370
    30
100
AcDbLine
 10
82.19326410400734
 20
5.993515186095522
 30
0.0
 11
77.32998285400734
 21
5.993515186095522
 31
0.0
  0
LINE
  5
23F
330
1F
100
AcDbEntity
  8
100
  6
Continuous
 62
     7
370
    30
100
AcDbLine
 10
88.34560785400734
 20
6.198593311095522
 30
0.0
 11
82.19326410400734
 21
5.993515186095522
 31
0.0
  0
LINE
  5
240
330
1F
100
AcDbEntity
  8
100
  6
Continuous
 62
     7
370
    30
100
AcDbLine
 10
94.58584222900734
 20
6.579452686095522
 30
0.0
 11
88.34560785400734
 21
6.198593311095522
 31
0.0
  0
LINE
  5
241
330
1F
100
AcDbEntity
  8
100
  6
Continuous
 62
     7
370
    30
100
AcDbLine
 10
99.33193597900734
 20
7.018905811095522
 30
0.0
 11
94.58584222900734
 21
6.579452686095522
 31
0.0
  0
LINE
  5
242
330
1F
100
AcDbEntity
  8
100
  6
Continuous
 62
     7
370
    30
100
AcDbLine
 10
105.1327172290073
 20
7.956405811095522
 30
0.0
 11
99.33193597900734
 21
7.018905811095522
 31
0.0
  0
LINE
  5
243
330
1F
100
AcDbEntity
  8
100
  6
Continuous
 62
     7
370
    30
100
AcDbLine
 10
110.4940453540073
 20
9.172226123595522
 30
0.0
 11
105.1327172290073
 21
7.956405811095522
 31
0.0
  0
LINE
  5
244
330
1F
100
AcDbEntity
  8
100
  6
Continuous
 62
     7
370
    30
100
AcDbLine
 10
114.3026391040073
 20
10.44664018609552
 30
0.0
 11
110.4940453540073
 21
9.172226123595522
 31
0.0
  0
LINE
  5
245
330
1F
100
AcDbEntity
  8
100
  6
Continuous
 62
     7
370
    30
100
AcDbLine
 10
116.2948266040073
 20
11.53062456109552
 30
0.0
 11
114.3026391040073
 21
10.44664018609552
 31
0.0
  0
LINE
  5
246
330
1F
100
AcDbEntity
  8
100
  6
Continuous
 62
     7
370
    30
100
AcDbLine
 10
111.5194359790073
 20
17.36070268609552
 30
0.0
 11
113.1600609790073
 21
16.54039018609552
 31
0.0
  0
LINE
  5
247
330
1F
100
AcDbEntity
  8
100
  6
Continuous
 62
     7
370
    30
100
AcDbLine
 10
110.810572630322
 20
17.48034114686334
 30
0.0
 11
111.5194359790073
 21
17.36070268609552
 31
0.0
  0
LINE
  5
248
330
1F
100
AcDbEntity
  8
100
  6
Continuous
 62
     7
370
    30
100
AcDbLine
 10
112.0907250415073
 20
51.08140581109552
 30
0.0
 11
110.4940453540073
 21
9.172226123595522
 31
0.0
  0
LINE
  5
249
330
1F
100
AcDbEntity
  8
100
  6
Continuous
 62
     7
370
    30
100
AcDbLine
 10
60.98232660400733
 20
28.33238237359552
 30
0.0
 11
60.98232660400733
 21
15.38316362359552
 31
0.0
  0
LINE
  5
24A
330
1F
100
AcDbEntity
  8
100
  6
Continuous
 62
     7
370
    30
100
AcDbLine
 10
61.15810785400733
 20
43.74253862359552
 30
0.0
 11
60.98232660400733
 21
28.33238237359552
 31
0.0
  0
LINE
  5
24B
330
1F
100
AcDbEntity
  8
100
  6
Continuous
 62
     7
370
    30
100
AcDbLine
 10
56.98330316650733
 20
43.21519487359552
 30
0.0
 11
56.98330316650733
 21
13.09800737359552
 31
0.0
  0
LINE
  5
24C
330
1F
100
AcDbEntity
  8
100
  6
Continuous
 62
     7
370
    30
100
AcDbLine
 10
34.20498285400733
 20
23.24937456109552
 30
0.0
 11
34.24892816650733
 21
12.42417924859552
 31
0.0
  0
LINE
  5
24D
330
1F
100
AcDbEntity
  8
100
  6
Continuous
 62
     7
370
    30
100
AcDbLine
 10
34.34440164975065
 20
54.04108025422289
 30
0.0
 11
34.20498285400733
 21
23.24937456109552
 31
0.0
  0
LINE
  5
24E
330
1F
100
AcDbEntity
  8
100
  6
Continuous
 62
     7
370
    30
100
AcDbLine
 10
30.54287347900733
 20
32.15562456109552
 30
0.0
 11
30.54287347900733
 21
28.69859331109552
 31
0.0
  0
LINE
  5
24F
330
1F
100
AcDbEntity
  8
100
  6
Continuous
 62
     7
370
    30
100
AcDbLine
 10
30.51357660400733
 20
41.38414018609552
 30
0.0
 11
30.54287347900733
 21
32.15562456109552
 31
0.0
  0
LINE
  5
250
330
1F
100
AcDbEntity
  8
100
  6
Continuous
 62
     7
370
    30
100
AcDbLine
 10
30.60146722900733
 20
49.26499956109552
 30
0.0
 11
30.51357660400733
 21
41.38414018609552
 31
0.0
  0
LINE
  5
251
330
1F
100
AcDbEntity
  8
100
  6
Continuous
 62
     7
370
    30
100
AcDbLine
 10
33.44326410400733
 20
39.21617143609552
 30
0.0
 11
33.38467035400733
 21
30.01695268609552
 31
0.0
  0
LINE
  5
252
330
1F
100
AcDbEntity
  8
100
  6
Continuous
 62
     7
370
    30
100
AcDbLine
 10
33.76552972900733
 20
50.90562456109552
 30
0.0
 11
33.44326410400733
 21
39.21617143609552
 31
0.0
  0
LINE
  5
253
330
1F
100
AcDbEntity
  8
100
  6
Continuous
 62
     7
370
    30
100
AcDbLine
 10
33.88271722900733
 20
53.04429643609552
 30
0.0
 11
33.76552972900733
 21
50.90562456109552
 31
0.0
  0
LINE
  5
254
330
1F
100
AcDbEntity
  8
100
  6
Continuous
 62
     7
370
    30
100
AcDbLine
 10
34.34440164975065
 20
54.04108025422289
 30
0.0
 11
33.88271722900733
 21
53.04429643609552
 31
0.0
  0
LINE
  5
255
330
1F
100
AcDbEntity
  8
100
  6
Continuous
 62
     7
370
    30
100
AcDbLine
 10
30.61611566650733
 20
59.68003862359552
 30
0.0
 11
29.09267816650733
 21
60.14878862359552
 31
0.0
  0
LINE
  5
256
330
1F
100
AcDbEntity
  8
100
  6
Continuous
 62
     7
370
    30
100
AcDbLine
 10
32.78408441650733
 20
59.26988237359552
 30
0.0
 11
30.61611566650733
 21
59.68003862359552
 31
0.0
  0
LINE
  5
257
330
1F
100
AcDbEntity
  8
100
  6
Continuous
 62
     7
370
    30
100
AcDbLine
 10
41.70498285400733
 20
58.09800737359552
 30
0.0
 11
34.27822504150733
 21
59.15269487359552
 31
0.0
  0
LINE
  5
258
330
1F
100
AcDbEntity
  8
100
  6
Continuous
 62
     7
370
    30
100
AcDbLine
 10
48.97060785400733
 20
57.57066362359552
 30
0.0
 11
41.70498285400733
 21
58.09800737359552
 31
0.0
  0
LINE
  5
259
330
1F
100
AcDbEntity
  8
100
  6
Continuous
 62
     7
370
    30
100
AcDbLine
 10
57.69192133056983
 20
57.07261674859552
 30
0.0
 11
48.97060785400733
 21
57.57066362359552
 31
0.0
  0
LINE
  5
25A
330
1F
100
AcDbEntity
  8
100
  6
Continuous
 62
     7
370
    30
100
AcDbLine
 10
65.66982660400734
 20
56.50132768609552
 30
0.0
 11
61.76418695556983
 21
56.75035112359552
 31
0.0
  0
LINE
  5
25B
330
1F
100
AcDbEntity
  8
100
  6
Continuous
 62
     7
370
    30
100
AcDbLine
 10
81.13857660400734
 20
56.09117143609552
 30
0.0
 11
65.66982660400734
 21
56.50132768609552
 31
0.0
  0
LINE
  5
25C
330
1F
100
AcDbEntity
  8
100
  6
Continuous
 62
     7
370
    30
100
AcDbLine
 10
103.2870141040073
 20
55.88609331109552
 30
0.0
 11
81.13857660400734
 21
56.09117143609552
 31
0.0
  0
LINE
  5
25D
330
1F
100
AcDbEntity
  8
100
  6
Continuous
 62
     7
370
    30
100
AcDbLine
 10
112.1548119555698
 20
56.16441362359552
 30
0.0
 11
103.2870141040073
 21
55.88609331109552
 31
0.0
  0
LINE
  5
25E
330
1F
100
AcDbEntity
  8
100
  6
Continuous
 62
     7
370
    30
100
AcDbLine
 10
115.9780541430698
 20
56.17906206109552
 30
0.0
 11
112.1548119555698
 21
56.16441362359552
 31
0.0
  0
LINE
  5
25F
330
1F
100
AcDbEntity
  8
100
  6
Continuous
 62
     7
370
    30
100
AcDbLine
 10
122.8133812915073
 20
56.70640581109552
 30
0.0
 11
121.8758812915073
 21
57.49742143609552
 31
0.0
  0
LINE
  5
260
330
1F
100
AcDbEntity
  8
100
  6
Continuous
 62
     7
370
    30
100
AcDbLine
 10
123.2821312915073
 20
55.44664018609552
 30
0.0
 11
122.8133812915073
 21
56.70640581109552
 31
0.0
  0
LINE
  5
261
330
1F
100
AcDbEntity
  8
100
  6
Continuous
 62
     7
370
    30
100
AcDbLine
 10
123.2528344165073
 20
54.09898393609552
 30
0.0
 11
123.2821312915073
 21
55.44664018609552
 31
0.0
  0
LINE
  5
262
330
1F
100
AcDbEntity
  8
100
  6
Continuous
 62
     7
370
    30
100
AcDbLine
 10
122.1981469165073
 20
52.86851518609552
 30
0.0
 11
123.2528344165073
 21
54.09898393609552
 31
0.0
  0
LINE
  5
263
330
1F
100
AcDbEntity
  8
100
  6
Continuous
 62
     7
370
    30
100
AcDbLine
 10
118.3602562915073
 20
51.75523393609552
 30
0.0
 11
122.1981469165073
 21
52.86851518609552
 31
0.0
  0
LINE
  5
264
330
1F
100
AcDbEntity
  8
100
  6
Continuous
 62
     7
370
    30
100
AcDbLine
 10
112.0907250415073
 20
51.08140581109552
 30
0.0
 11
118.3602562915073
 21
51.75523393609552
 31
0.0
  0
LINE
  5
265
330
1F
100
AcDbEntity
  8
100
  6
Continuous
 62
     7
370
    30
100
AcDbLine
 10
103.4188500415073
 20
50.61265581109552
 30
0.0
 11
112.0907250415073
 21
51.08140581109552
 31
0.0
  0
LINE
  5
266
330
1F
100
AcDbEntity
  8
100
  6
Continuous
 62
     7
370
    30
100
AcDbLine
 10
94.27822504150734
 20
50.55406206109552
 30
0.0
 11
103.4188500415073
 21
50.61265581109552
 31
0.0
  0
LINE
  5
267
330
1F
100
AcDbEntity
  8
100
  6
Continuous
 62
     7
370
    30
100
AcDbLine
 10
82.58877191650734
 20
50.75914018609552
 30
0.0
 11
94.27822504150734
 21
50.55406206109552
 31
0.0
  0
LINE
  5
268
330
1F
100
AcDbEntity
  8
100
  6
Continuous
 62
     7
370
    30
100
AcDbLine
 10
74.88369379150734
 20
50.93492143609552
 30
0.0
 11
82.58877191650734
 21
50.75914018609552
 31
0.0
  0
LINE
  5
269
330
1F
100
AcDbEntity
  8
100
  6
Continuous
 62
     7
370
    30
100
AcDbLine
 10
65.09853754150734
 20
51.41831987359552
 30
0.0
 11
74.88369379150734
 21
50.93492143609552
 31
0.0
  0
LINE
  5
26A
330
1F
100
AcDbEntity
  8
100
  6
Continuous
 62
     7
370
    30
100
AcDbLine
 10
60.87978754150733
 20
51.65269487359552
 30
0.0
 11
65.09853754150734
 21
51.41831987359552
 31
0.0
  0
LINE
  5
26B
330
1F
100
AcDbEntity
  8
100
  6
Continuous
 62
     7
370
    30
100
AcDbLine
 10
55.72353754150733
 20
51.97496049859552
 30
0.0
 11
60.87978754150733
 21
51.65269487359552
 31
0.0
  0
LINE
  5
26C
330
1F
100
AcDbEntity
  8
100
  6
Continuous
 62
     7
370
    30
100
AcDbLine
 10
50.81631097900733
 20
52.29722612359552
 30
0.0
 11
55.72353754150733
 21
51.97496049859552
 31
0.0
  0
LINE
  5
26D
330
1F
100
AcDbEntity
  8
100
  6
Continuous
 62
     7
370
    30
100
AcDbLine
 10
45.52822504150733
 20
52.70738237359552
 30
0.0
 11
50.81631097900733
 21
52.29722612359552
 31
0.0
  0
LINE
  5
26E
330
1F
100
AcDbEntity
  8
100
  6
Continuous
 62
     7
370
    30
100
AcDbLine
 10
40.91396722900733
 20
53.10289018609552
 30
0.0
 11
45.52822504150733
 21
52.70738237359552
 31
0.0
  0
LINE
  5
26F
330
1F
100
AcDbEntity
  8
100
  6
Continuous
 62
     7
370
    30
100
AcDbLine
 10
35.43545160400733
 20
53.83531206109552
 30
0.0
 11
40.91396722900733
 21
53.10289018609552
 31
0.0
  0
LINE
  5
270
330
1F
100
AcDbEntity
  8
100
  6
Continuous
 62
     7
370
    30
100
AcDbLine
 10
32.09560785400733
 20
54.46519487359552
 30
0.0
 11
35.43545160400733
 21
53.83531206109552
 31
0.0
  0
LINE
  5
271
330
1F
100
AcDbEntity
  8
100
  6
Continuous
 62
     7
370
    30
100
AcDbLine
 10
29.92763910400733
 20
55.08042924859552
 30
0.0
 11
32.09560785400733
 21
54.46519487359552
 31
0.0
  0
LINE
  5
272
330
1F
100
AcDbEntity
  8
100
  6
Continuous
 62
     7
370
    30
100
AcDbLine
 10
27.61318597900733
 20
55.85679643609552
 30
0.0
 11
29.92763910400733
 21
55.08042924859552
 31
0.0
  0
LINE
  5
273
330
1F
100
AcDbEntity
  8
100
  6
Continuous
 62
     7
370
    30
100
AcDbLine
 10
25.60635004150733
 20
56.88218706109552
 30
0.0
 11
27.61318597900733
 21
55.85679643609552
 31
0.0
  0
LINE
  5
274
330
1F
100
AcDbEntity
  8
100
  6
Continuous
 62
     7
370
    30
100
AcDbLine
 10
24.87392816650733
 20
58.25914018609552
 30
0.0
 11
25.60635004150733
 21
56.88218706109552
 31
0.0
  0
LINE
  5
275
330
1F
100
AcDbEntity
  8
100
  6
Continuous
 62
     7
370
    30
100
AcDbLine
 10
25.00576410400733
 20
59.32847612359552
 30
0.0
 11
24.87392816650733
 21
58.25914018609552
 31
0.0
  0
LINE
  5
276
330
1F
100
AcDbEntity
  8
100
  6
Continuous
 62
     7
370
    30
100
AcDbLine
 10
25.60635004150733
 20
60.44175737359552
 30
0.0
 11
25.00576410400733
 21
59.32847612359552
 31
0.0
  0
LINE
  5
277
330
1F
100
AcDbEntity
  8
100
  6
Continuous
 62
     7
370
    30
100
AcDbLine
 10
26.69033441650733
 20
61.20347612359552
 30
0.0
 11
25.60635004150733
 21
60.44175737359552
 31
0.0
  0
LINE
  5
278
330
1F
100
AcDbEntity
  8
100
  6
Continuous
 62
     7
370
    30
100
AcDbLine
 10
29.42959222900733
 20
61.89195268609552
 30
0.0
 11
26.69033441650733
 21
61.20347612359552
 31
0.0
  0
LINE
  5
279
330
1F
100
AcDbEntity
  8
100
  6
Continuous
 62
     7
370
    30
100
AcDbLine
 10
38.68740472900733
 20
85.69566362359552
 30
0.0
 11
37.36904535400733
 21
82.44371049859552
 31
0.0
  0
LINE
  5
27A
330
1F
100
AcDbEntity
  8
100
  6
Continuous
 62
     7
370
    30
100
AcDbLine
 10
40.35732660400733
 20
88.74253862359552
 30
0.0
 11
38.68740472900733
 21
85.69566362359552
 31
0.0
  0
LINE
  5
27B
330
1F
100
AcDbEntity
  8
100
  6
Continuous
 62
     7
370
    30
100
AcDbLine
 10
42.11513910400733
 20
91.46714799859552
 30
0.0
 11
40.35732660400733
 21
88.74253862359552
 31
0.0
  0
LINE
  5
27C
330
1F
100
AcDbEntity
  8
100
  6
Continuous
 62
     7
370
    30
100
AcDbLine
 10
43.99013910400733
 20
93.84019487359552
 30
0.0
 11
42.11513910400733
 21
91.46714799859552
 31
0.0
  0
LINE
  5
27D
330
1F
100
AcDbEntity
  8
100
  6
Continuous
 62
     7
370
    30
100
AcDbLine
 10
46.36318597900733
 20
96.38902299859552
 30
0.0
 11
43.99013910400733
 21
93.84019487359552
 31
0.0
  0
LINE
  5
27E
330
1F
100
AcDbEntity
  8
100
  6
Continuous
 62
     7
370
    30
100
AcDbLine
 10
48.56045160400733
 20
98.52769487359552
 30
0.0
 11
46.36318597900733
 21
96.38902299859552
 31
0.0
  0
LINE
  5
27F
330
1F
100
AcDbEntity
  8
100
  6
Continuous
 62
     7
370
    30
100
AcDbLine
 10
51.60732660400733
 20
100.9593354985955
 30
0.0
 11
48.56045160400733
 21
98.52769487359552
 31
0.0
  0
LINE
  5
280
330
1F
100
AcDbEntity
  8
100
  6
Continuous
 62
     7
370
    30
100
AcDbLine
 10
54.71279535400733
 20
102.8343354985955
 30
0.0
 11
51.60732660400733
 21
100.9593354985955
 31
0.0
  0
LINE
  5
281
330
1F
100
AcDbEntity
  8
100
  6
Continuous
 62
     7
370
    30
100
AcDbLine
 10
57.73037347900733
 20
104.5628511235955
 30
0.0
 11
54.71279535400733
 21
102.8343354985955
 31
0.0
  0
LINE
  5
282
330
1F
100
AcDbEntity
  8
100
  6
Continuous
 62
     7
370
    30
100
AcDbLine
 10
60.57217035400733
 20
105.9544526860955
 30
0.0
 11
57.73037347900733
 21
104.5628511235955
 31
0.0
  0
LINE
  5
283
330
1F
100
AcDbEntity
  8
100
  6
Continuous
 62
     7
370
    30
100
AcDbLine
 10
63.65472770714795
 20
107.225637311375
 30
0.0
 11
60.57217035400733
 21
105.9544526860955
 31
0.0
  0
LINE
  5
284
330
1F
100
AcDbEntity
  8
100
  6
Continuous
 62
     7
370
    30
100
AcDbLine
 10
58.62392816650733
 20
93.75230424859552
 30
0.0
 11
59.77027491886611
 21
94.14875448159358
 31
0.0
  0
LINE
  5
285
330
1F
100
AcDbEntity
  8
100
  6
Continuous
 62
     7
370
    30
100
AcDbLine
 10
55.43056879150733
 20
92.34605424859552
 30
0.0
 11
58.62392816650733
 21
93.75230424859552
 31
0.0
  0
LINE
  5
286
330
1F
100
AcDbEntity
  8
100
  6
Continuous
 62
     7
370
    30
100
AcDbLine
 10
52.17861566650733
 20
90.50035112359552
 30
0.0
 11
55.43056879150733
 21
92.34605424859552
 31
0.0
  0
LINE
  5
287
330
1F
100
AcDbEntity
  8
100
  6
Continuous
 62
     7
370
    30
100
AcDbLine
 10
48.51650629150733
 20
87.86363237359552
 30
0.0
 11
52.17861566650733
 21
90.50035112359552
 31
0.0
  0
LINE
  5
288
330
1F
100
AcDbEntity
  8
100
  6
Continuous
 62
     7
370
    30
100
AcDbLine
 10
45.14736566650733
 20
84.58238237359552
 30
0.0
 11
48.51650629150733
 21
87.86363237359552
 31
0.0
  0
LINE
  5
289
330
1F
100
AcDbEntity
  8
100
  6
Continuous
 62
     7
370
    30
100
AcDbLine
 10
42.30556879150733
 20
80.97886674859552
 30
0.0
 11
45.14736566650733
 21
84.58238237359552
 31
0.0
  0
LINE
  5
28A
330
1F
100
AcDbEntity
  8
100
  6
Continuous
 62
     7
370
    30
100
AcDbLine
 10
39.58095941650733
 20
76.84800737359552
 30
0.0
 11
42.30556879150733
 21
80.97886674859552
 31
0.0
  0
LINE
  5
28B
330
1F
100
AcDbEntity
  8
100
  6
Continuous
 62
     7
370
    30
100
AcDbLine
 10
37.96963129150733
 20
73.77183549859552
 30
0.0
 11
39.58095941650733
 21
76.84800737359552
 31
0.0
  0
LINE
  5
28C
330
1F
100
AcDbEntity
  8
100
  6
Continuous
 62
     7
370
    30
100
AcDbLine
 10
36.09463129150733
 20
69.20152299859552
 30
0.0
 11
37.96963129150733
 21
73.77183549859552
 31
0.0
  0
LINE
  5
28D
330
1F
100
AcDbEntity
  8
100
  6
Continuous
 62
     7
370
    30
100
AcDbLine
 10
34.95205316650733
 20
64.57261674859552
 30
0.0
 11
36.09463129150733
 21
69.20152299859552
 31
0.0
  0
LINE
  5
28E
330
1F
100
AcDbEntity
  8
100
  6
Continuous
 62
     7
370
    30
100
AcDbLine
 10
34.51260004150733
 20
61.40855424859552
 30
0.0
 11
34.95205316650733
 21
64.57261674859552
 31
0.0
  0
LINE
  5
28F
330
1F
100
AcDbEntity
  8
100
  6
Continuous
 62
     7
370
    30
100
AcDbLine
 10
34.27822504150733
 20
59.15269487359552
 30
0.0
 11
34.51260004150733
 21
61.40855424859552
 31
0.0
  0
LINE
  5
290
330
1F
100
AcDbEntity
  8
100
  6
Continuous
 62
     7
370
    30
100
AcDbLine
 10
32.78408441650733
 20
59.26988237359552
 30
0.0
 11
34.27822504150733
 21
59.15269487359552
 31
0.0
  0
LINE
  5
291
330
1F
100
AcDbEntity
  8
100
  6
Continuous
 62
     7
370
    30
100
AcDbLine
 10
32.93056879150733
 20
78.60581987359552
 30
0.0
 11
32.11025629150733
 21
74.56285112359552
 31
0.0
  0
LINE
  5
292
330
1F
100
AcDbEntity
  8
100
  6
Continuous
 62
     7
370
    30
100
AcDbLine
 10
34.13174066650733
 20
82.73667924859552
 30
0.0
 11
32.93056879150733
 21
78.60581987359552
 31
0.0
  0
LINE
  5
293
330
1F
100
AcDbEntity
  8
100
  6
Continuous
 62
     7
370
    30
100
AcDbLine
 10
35.65517816650733
 20
86.51597612359552
 30
0.0
 11
34.13174066650733
 21
82.73667924859552
 31
0.0
  0
LINE
  5
294
330
1F
100
AcDbEntity
  8
100
  6
Continuous
 62
     7
370
    30
100
AcDbLine
 10
37.17861566650733
 20
89.47496049859552
 30
0.0
 11
35.65517816650733
 21
86.51597612359552
 31
0.0
  0
LINE
  5
295
330
1F
100
AcDbEntity
  8
100
  6
Continuous
 62
     7
370
    30
100
AcDbLine
 10
39.02431879150733
 20
92.58042924859552
 30
0.0
 11
37.17861566650733
 21
89.47496049859552
 31
0.0
  0
LINE
  5
296
330
1F
100
AcDbEntity
  8
100
  6
Continuous
 62
     7
370
    30
100
AcDbLine
 10
41.57314691650733
 20
95.74449174859552
 30
0.0
 11
39.02431879150733
 21
92.58042924859552
 31
0.0
  0
LINE
  5
297
330
1F
100
AcDbEntity
  8
100
  6
Continuous
 62
     7
370
    30
100
AcDbLine
 10
44.01943597900733
 20
98.61558549859552
 30
0.0
 11
41.57314691650733
 21
95.74449174859552
 31
0.0
  0
LINE
  5
298
330
1F
100
AcDbEntity
  8
100
  6
Continuous
 62
     7
370
    30
100
AcDbLine
 10
47.27138910400733
 20
101.6185151860955
 30
0.0
 11
44.01943597900733
 21
98.61558549859552
 31
0.0
  0
LINE
  5
299
330
1F
100
AcDbEntity
  8
100
  6
Continuous
 62
     7
370
    30
100
AcDbLine
 10
51.10927972900733
 20
104.5189058110955
 30
0.0
 11
47.27138910400733
 21
101.6185151860955
 31
0.0
  0
LINE
  5
29A
330
1F
100
AcDbEntity
  8
100
  6
Continuous
 62
     7
370
    30
100
AcDbLine
 10
53.90713129150733
 20
106.1888276860955
 30
0.0
 11
51.10927972900733
 21
104.5189058110955
 31
0.0
  0
LINE
  5
29B
330
1F
100
AcDbEntity
  8
100
  6
Continuous
 62
     7
370
    30
100
AcDbLine
 10
56.57314691650733
 20
107.6829683110955
 30
0.0
 11
53.90713129150733
 21
106.1888276860955
 31
0.0
  0
LINE
  5
29C
330
1F
100
AcDbEntity
  8
100
  6
Continuous
 62
     7
370
    30
100
AcDbLine
 10
60.14736566650733
 20
109.2064058110955
 30
0.0
 11
56.57314691650733
 21
107.6829683110955
 31
0.0
  0
LINE
  5
29D
330
1F
100
AcDbEntity
  8
100
  6
Continuous
 62
     7
370
    30
100
AcDbLine
 10
62.52041254150733
 20
110.1878511235955
 30
0.0
 11
60.14736566650733
 21
109.2064058110955
 31
0.0
  0
LINE
  5
29E
330
1F
100
AcDbEntity
  8
100
  6
Continuous
 62
     7
370
    30
100
AcDbLine
 10
65.76314650443086
 20
110.8619263056477
 30
0.0
 11
62.52041254150733
 21
110.1878511235955
 31
0.0
  0
LINE
  5
29F
330
1F
100
AcDbEntity
  8
100
  6
Continuous
 62
     7
370
    30
100
AcDbLine
 10
72.58938226806984
 20
111.0814058110955
 30
0.0
 11
71.08824664886589
 21
111.3049848943931
 31
0.0
  0
LINE
  5
2A0
330
1F
100
AcDbEntity
  8
100
  6
Continuous
 62
     7
370
    30
100
AcDbLine
 10
72.81673301732324
 20
111.1081529580665
 30
0.0
 11
72.58938226806984
 21
111.0814058110955
 31
0.0
  0
LINE
  5
2A1
330
1F
100
AcDbEntity
  8
100
  6
Continuous
 62
     7
370
    30
100
AcDbLine
 10
72.66994867431984
 20
111.2718354985955
 30
0.0
 11
72.81673301732324
 21
111.1081529580665
 31
0.0
  0
LINE
  5
2A2
330
1F
100
AcDbEntity
  8
100
  6
Continuous
 62
     7
370
    30
100
AcDbLine
 10
72.28908929931984
 20
111.4256440923455
 30
0.0
 11
72.66994867431984
 21
111.2718354985955
 31
0.0
  0
LINE
  5
2A3
330
1F
100
AcDbEntity
  8
100
  6
Continuous
 62
     7
370
    30
100
AcDbLine
 10
71.45412836181984
 20
111.4476167485955
 30
0.0
 11
72.28908929931984
 21
111.4256440923455
 31
0.0
  0
LINE
  5
2A4
330
1F
100
AcDbEntity
  8
100
  6
Continuous
 62
     7
370
    30
100
AcDbLine
 10
71.02199945556984
 20
111.2791597173455
 30
0.0
 11
71.45412836181984
 21
111.4476167485955
 31
0.0
  0
LINE
  5
2A5
330
1F
100
AcDbEntity
  8
100
  6
Continuous
 62
     7
370
    30
100
AcDbLine
 10
69.57180414306984
 20
109.9095308110955
 30
0.0
 11
71.02199945556984
 21
111.2791597173455
 31
0.0
  0
LINE
  5
2A6
330
1F
100
AcDbEntity
  8
100
  6
Continuous
 62
     7
370
    30
100
AcDbLine
 10
67.98977289306984
 20
107.7122651860955
 30
0.0
 11
69.57180414306984
 21
109.9095308110955
 31
0.0
  0
LINE
  5
2A7
330
1F
100
AcDbEntity
  8
100
  6
Continuous
 62
     7
370
    30
100
AcDbLine
 10
66.59817133056984
 20
104.7679292485955
 30
0.0
 11
67.98977289306984
 21
107.7122651860955
 31
0.0
  0
LINE
  5
2A8
330
1F
100
AcDbEntity
  8
100
  6
Continuous
 62
     7
370
    30
100
AcDbLine
 10
65.27981195556984
 20
100.7835542485955
 30
0.0
 11
66.59817133056984
 21
104.7679292485955
 31
0.0
  0
LINE
  5
2A9
330
1F
100
AcDbEntity
  8
100
  6
Continuous
 62
     7
370
    30
100
AcDbLine
 10
64.04934320556984
 20
95.62730424859552
 30
0.0
 11
65.27981195556984
 21
100.7835542485955
 31
0.0
  0
LINE
  5
2AA
330
1F
100
AcDbEntity
  8
100
  6
Continuous
 62
     7
370
    30
100
AcDbLine
 10
63.72707758056983
 20
94.30894487359552
 30
0.0
 11
64.04934320556984
 21
95.62730424859552
 31
0.0
  0
LINE
  5
2AB
330
1F
100
AcDbEntity
  8
100
  6
Continuous
 62
     7
370
    30
100
AcDbLine
 10
62.93606195556983
 20
89.56285112359552
 30
0.0
 11
63.72707758056983
 21
94.30894487359552
 31
0.0
  0
LINE
  5
2AC
330
1F
100
AcDbEntity
  8
100
  6
Continuous
 62
     7
370
    30
100
AcDbLine
 10
62.20364008056983
 20
83.05894487359552
 30
0.0
 11
62.93606195556983
 21
89.56285112359552
 31
0.0
  0
LINE
  5
2AD
330
1F
100
AcDbEntity
  8
100
  6
Continuous
 62
     7
370
    30
100
AcDbLine
 10
61.73489008056983
 20
77.60972612359552
 30
0.0
 11
62.20364008056983
 21
83.05894487359552
 31
0.0
  0
LINE
  5
2AE
330
1F
100
AcDbEntity
  8
100
  6
Continuous
 62
     7
370
    30
100
AcDbLine
 10
61.47121820556983
 20
71.95542924859552
 30
0.0
 11
61.73489008056983
 21
77.60972612359552
 31
0.0
  0
LINE
  5
2AF
330
1F
100
AcDbEntity
  8
100
  6
Continuous
 62
     7
370
    30
100
AcDbLine
 10
61.35403070556983
 20
68.70347612359552
 30
0.0
 11
61.47121820556983
 21
71.95542924859552
 31
0.0
  0
LINE
  5
2B0
330
1F
100
AcDbEntity
  8
100
  6
Continuous
 62
     7
370
    30
100
AcDbLine
 10
61.32473383056983
 20
64.22105424859552
 30
0.0
 11
61.35403070556983
 21
68.70347612359552
 31
0.0
  0
LINE
  5
2B1
330
1F
100
AcDbEntity
  8
100
  6
Continuous
 62
     7
370
    30
100
AcDbLine
 10
61.35403070556983
 20
62.22886674859552
 30
0.0
 11
61.32473383056983
 21
64.22105424859552
 31
0.0
  0
LINE
  5
2B2
330
1F
100
AcDbEntity
  8
100
  6
Continuous
 62
     7
370
    30
100
AcDbLine
 10
57.69192133056983
 20
57.07261674859552
 30
0.0
 11
61.76418695556983
 21
56.75035112359552
 31
0.0
  0
LINE
  5
2B3
330
1F
100
AcDbEntity
  8
100
  6
Continuous
 62
     7
370
    30
100
AcDbLine
 10
57.25246820556983
 20
70.90074174859552
 30
0.0
 11
57.16457758056983
 21
65.83238237359552
 31
0.0
  0
LINE
  5
2B4
330
1F
100
AcDbEntity
  8
100
  6
Continuous
 62
     7
370
    30
100
AcDbLine
 10
57.51614008056983
 20
75.88121049859552
 30
0.0
 11
57.25246820556983
 21
70.90074174859552
 31
0.0
  0
LINE
  5
2B5
330
1F
100
AcDbEntity
  8
100
  6
Continuous
 62
     7
370
    30
100
AcDbLine
 10
57.89699945556983
 20
80.89097612359552
 30
0.0
 11
57.51614008056983
 21
75.88121049859552
 31
0.0
  0
LINE
  5
2B6
330
1F
100
AcDbEntity
  8
100
  6
Continuous
 62
     7
370
    30
100
AcDbLine
 10
58.62942133056983
 20
87.77574174859552
 30
0.0
 11
57.89699945556983
 21
80.89097612359552
 31
0.0
  0
LINE
  5
2B7
330
1F
100
AcDbEntity
  8
100
  6
Continuous
 62
     7
370
    30
100
AcDbLine
 10
59.30324945556983
 20
92.02378862359552
 30
0.0
 11
58.62942133056983
 21
87.77574174859552
 31
0.0
  0
LINE
  5
2B8
330
1F
100
AcDbEntity
  8
100
  6
Continuous
 62
     7
370
    30
100
AcDbLine
 10
59.88918695556983
 20
94.68980424859552
 30
0.0
 11
59.30324945556983
 21
92.02378862359552
 31
0.0
  0
LINE
  5
2B9
330
1F
100
AcDbEntity
  8
100
  6
Continuous
 62
     7
370
    30
100
AcDbLine
 10
60.53371820556983
 20
97.91246049859552
 30
0.0
 11
59.88918695556983
 21
94.68980424859552
 31
0.0
  0
LINE
  5
2BA
330
1F
100
AcDbEntity
  8
100
  6
Continuous
 62
     7
370
    30
100
AcDbLine
 10
61.67629633056983
 20
101.5745698735955
 30
0.0
 11
60.53371820556983
 21
97.91246049859552
 31
0.0
  0
LINE
  5
2BB
330
1F
100
AcDbEntity
  8
100
  6
Continuous
 62
     7
370
    30
100
AcDbLine
 10
62.49660883056983
 20
103.8597261235955
 30
0.0
 11
61.67629633056983
 21
101.5745698735955
 31
0.0
  0
LINE
  5
2BC
330
1F
100
AcDbEntity
  8
100
  6
Continuous
 62
     7
370
    30
100
AcDbLine
 10
63.43410883056983
 20
106.7894136235955
 30
0.0
 11
62.49660883056983
 21
103.8597261235955
 31
0.0
  0
LINE
  5
2BD
330
1F
100
AcDbEntity
  8
100
  6
Continuous
 62
     7
370
    30
100
AcDbLine
 10
64.72317133056984
 20
109.3382417485955
 30
0.0
 11
63.43410883056983
 21
106.7894136235955
 31
0.0
  0
LINE
  5
2BE
330
1F
100
AcDbEntity
  8
100
  6
Continuous
 62
     7
370
    30
100
AcDbLine
 10
65.98293695556984
 20
111.1839448735955
 30
0.0
 11
64.72317133056984
 21
109.3382417485955
 31
0.0
  0
LINE
  5
2BF
330
1F
100
AcDbEntity
  8
100
  6
Continuous
 62
     7
370
    30
100
AcDbLine
 10
67.47707758056984
 20
112.9124604985955
 30
0.0
 11
65.98293695556984
 21
111.1839448735955
 31
0.0
  0
LINE
  5
2C0
330
1F
100
AcDbEntity
  8
100
  6
Continuous
 62
     7
370
    30
100
AcDbLine
 10
69.08840570556984
 20
114.2308198735955
 30
0.0
 11
67.47707758056984
 21
112.9124604985955
 31
0.0
  0
LINE
  5
2C1
330
1F
100
AcDbEntity
  8
100
  6
Continuous
 62
     7
370
    30
100
AcDbLine
 10
70.52395258056984
 20
114.8167573735955
 30
0.0
 11
69.08840570556984
 21
114.2308198735955
 31
0.0
  0
LINE
  5
2C2
330
1F
100
AcDbEntity
  8
100
  6
Continuous
 62
     7
370
    30
100
AcDbLine
 10
72.34035883056984
 20
114.9925386235955
 30
0.0
 11
70.52395258056984
 21
114.8167573735955
 31
0.0
  0
LINE
  5
2C3
330
1F
100
AcDbEntity
  8
100
  6
Continuous
 62
     7
370
    30
100
AcDbLine
 10
73.95168695556984
 20
114.3187104985955
 30
0.0
 11
72.34035883056984
 21
114.9925386235955
 31
0.0
  0
LINE
  5
2C4
330
1F
100
AcDbEntity
  8
100
  6
Continuous
 62
     7
370
    30
100
AcDbLine
 10
75.44582758056984
 20
113.0296479985955
 30
0.0
 11
73.95168695556984
 21
114.3187104985955
 31
0.0
  0
LINE
  5
2C5
330
1F
100
AcDbEntity
  8
100
  6
Continuous
 62
     7
370
    30
100
AcDbLine
 10
76.63235101806984
 20
111.6380464360955
 30
0.0
 11
75.44582758056984
 21
113.0296479985955
 31
0.0
  0
LINE
  5
2C6
330
1F
100
AcDbEntity
  8
100
  6
Continuous
 62
     7
370
    30
100
AcDbLine
 10
79.16653070556984
 20
106.3792573735955
 30
0.0
 11
78.46384518338459
 21
108.3252281027271
 31
0.0
  0
LINE
  5
2C7
330
1F
100
AcDbEntity
  8
100
  6
Continuous
 62
     7
370
    30
100
AcDbLine
 10
80.07473383056984
 20
104.0648042485955
 30
0.0
 11
79.16653070556984
 21
106.3792573735955
 31
0.0
  0
LINE
  5
2C8
330
1F
100
AcDbEntity
  8
100
  6
Continuous
 62
     7
370
    30
100
AcDbLine
 10
80.89504633056984
 20
101.9554292485955
 30
0.0
 11
80.07473383056984
 21
104.0648042485955
 31
0.0
  0
LINE
  5
2C9
330
1F
100
AcDbEntity
  8
100
  6
Continuous
 62
     7
370
    30
100
AcDbLine
 10
82.03762445556984
 20
98.46910112359552
 30
0.0
 11
80.89504633056984
 21
101.9554292485955
 31
0.0
  0
LINE
  5
2CA
330
1F
100
AcDbEntity
  8
100
  6
Continuous
 62
     7
370
    30
100
AcDbLine
 10
82.35989008056984
 20
95.68589799859552
 30
0.0
 11
82.03762445556984
 21
98.46910112359552
 31
0.0
  0
LINE
  5
2CB
330
1F
100
AcDbEntity
  8
100
  6
Continuous
 62
     7
370
    30
100
AcDbLine
 10
78.58059320556984
 20
97.85386674859552
 30
0.0
 11
78.66848383056984
 21
96.38902299859552
 31
0.0
  0
LINE
  5
2CC
330
1F
100
AcDbEntity
  8
100
  6
Continuous
 62
     7
370
    30
100
AcDbLine
 10
77.93606195556984
 20
100.4319917485955
 30
0.0
 11
78.58059320556984
 21
97.85386674859552
 31
0.0
  0
LINE
  5
2CD
330
1F
100
AcDbEntity
  8
100
  6
Continuous
 62
     7
370
    30
100
AcDbLine
 10
77.20364008056984
 20
103.0980073735955
 30
0.0
 11
77.93606195556984
 21
100.4319917485955
 31
0.0
  0
LINE
  5
2CE
330
1F
100
AcDbEntity
  8
100
  6
Continuous
 62
     7
370
    30
100
AcDbLine
 10
76.09035883056984
 20
105.9105073735955
 30
0.0
 11
77.20364008056984
 21
103.0980073735955
 31
0.0
  0
LINE
  5
2CF
330
1F
100
AcDbEntity
  8
100
  6
Continuous
 62
     7
370
    30
100
AcDbLine
 10
75.1476664562834
 20
108.1129712755431
 30
0.0
 11
76.09035883056984
 21
105.9105073735955
 31
0.0
  0
LINE
  5
2D0
330
1F
100
AcDbEntity
  8
100
  6
Continuous
 62
     7
370
    30
100
AcDbLine
 10
65.25051508056984
 20
95.97886674859552
 30
0.0
 11
64.04934320556984
 21
95.62730424859552
 31
0.0
  0
LINE
  5
2D1
330
1F
100
AcDbEntity
  8
100
  6
Continuous
 62
     7
370
    30
100
AcDbLine
 10
68.38528070556984
 20
96.50621049859552
 30
0.0
 11
65.25051508056984
 21
95.97886674859552
 31
0.0
  0
LINE
  5
2D2
330
1F
100
AcDbEntity
  8
100
  6
Continuous
 62
     7
370
    30
100
AcDbLine
 10
71.43215570556984
 20
96.68199174859552
 30
0.0
 11
68.38528070556984
 21
96.50621049859552
 31
0.0
  0
LINE
  5
2D3
330
1F
100
AcDbEntity
  8
100
  6
Continuous
 62
     7
370
    30
100
AcDbLine
 10
75.12356195556984
 20
96.65269487359552
 30
0.0
 11
71.43215570556984
 21
96.68199174859552
 31
0.0
  0
LINE
  5
2D4
330
1F
100
AcDbEntity
  8
100
  6
Continuous
 62
     7
370
    30
100
AcDbLine
 10
78.66848383056984
 20
96.38902299859552
 30
0.0
 11
75.12356195556984
 21
96.65269487359552
 31
0.0
  0
LINE
  5
2D5
330
1F
100
AcDbEntity
  8
100
  6
Continuous
 62
     7
370
    30
100
AcDbLine
 10
82.35989008056984
 20
95.68589799859552
 30
0.0
 11
78.66848383056984
 21
96.38902299859552
 31
0.0
  0
LINE
  5
2D6
330
1F
100
AcDbEntity
  8
100
  6
Continuous
 62
     7
370
    30
100
AcDbLine
 10
85.46535883056984
 20
94.66050737359552
 30
0.0
 11
82.35989008056984
 21
95.68589799859552
 31
0.0
  0
LINE
  5
2D7
330
1F
100
AcDbEntity
  8
100
  6
Continuous
 62
     7
370
    30
100
AcDbLine
 10
88.30715570556984
 20
93.34214799859552
 30
0.0
 11
85.46535883056984
 21
94.66050737359552
 31
0.0
  0
LINE
  5
2D8
330
1F
100
AcDbEntity
  8
100
  6
Continuous
 62
     7
370
    30
100
AcDbLine
 10
90.73879633056984
 20
92.14097612359552
 30
0.0
 11
88.30715570556984
 21
93.34214799859552
 31
0.0
  0
LINE
  5
2D9
330
1F
100
AcDbEntity
  8
100
  6
Continuous
 62
     7
370
    30
100
AcDbLine
 10
93.14114008056984
 20
90.76402299859552
 30
0.0
 11
90.73879633056984
 21
92.14097612359552
 31
0.0
  0
LINE
  5
2DA
330
1F
100
AcDbEntity
  8
100
  6
Continuous
 62
     7
370
    30
100
AcDbLine
 10
95.36770258056984
 20
89.21128862359552
 30
0.0
 11
93.14114008056984
 21
90.76402299859552
 31
0.0
  0
LINE
  5
2DB
330
1F
100
AcDbEntity
  8
100
  6
Continuous
 62
     7
370
    30
100
AcDbLine
 10
97.59426508056984
 20
87.48277299859552
 30
0.0
 11
95.36770258056984
 21
89.21128862359552
 31
0.0
  0
LINE
  5
2DC
330
1F
100
AcDbEntity
  8
100
  6
Continuous
 62
     7
370
    30
100
AcDbLine
 10
100.2895775805698
 20
84.90464799859552
 30
0.0
 11
97.59426508056984
 21
87.48277299859552
 31
0.0
  0
LINE
  5
2DD
330
1F
100
AcDbEntity
  8
100
  6
Continuous
 62
     7
370
    30
100
AcDbLine
 10
102.4868432055698
 20
82.47300737359552
 30
0.0
 11
100.2895775805698
 21
84.90464799859552
 31
0.0
  0
LINE
  5
2DE
330
1F
100
AcDbEntity
  8
100
  6
Continuous
 62
     7
370
    30
100
AcDbLine
 10
104.3618432055698
 20
80.36363237359552
 30
0.0
 11
102.4868432055698
 21
82.47300737359552
 31
0.0
  0
LINE
  5
2DF
330
1F
100
AcDbEntity
  8
100
  6
Continuous
 62
     7
370
    30
100
AcDbLine
 10
105.9731713305698
 20
77.87339799859552
 30
0.0
 11
104.3618432055698
 21
80.36363237359552
 31
0.0
  0
LINE
  5
2E0
330
1F
100
AcDbEntity
  8
100
  6
Continuous
 62
     7
370
    30
100
AcDbLine
 10
108.0239525805698
 20
74.24058549859552
 30
0.0
 11
105.9731713305698
 21
77.87339799859552
 31
0.0
  0
LINE
  5
2E1
330
1F
100
AcDbEntity
  8
100
  6
Continuous
 62
     7
370
    30
100
AcDbLine
 10
109.7231713305698
 20
70.72496049859552
 30
0.0
 11
108.0239525805698
 21
74.24058549859552
 31
0.0
  0
LINE
  5
2E2
330
1F
100
AcDbEntity
  8
100
  6
Continuous
 62
     7
370
    30
100
AcDbLine
 10
111.1294213305698
 20
66.85777299859552
 30
0.0
 11
109.7231713305698
 21
70.72496049859552
 31
0.0
  0
LINE
  5
2E3
330
1F
100
AcDbEntity
  8
100
  6
Continuous
 62
     7
370
    30
100
AcDbLine
 10
111.8325463305698
 20
63.48863237359552
 30
0.0
 11
111.1294213305698
 21
66.85777299859552
 31
0.0
  0
LINE
  5
2E4
330
1F
100
AcDbEntity
  8
100
  6
Continuous
 62
     7
370
    30
100
AcDbLine
 10
112.1108666430698
 20
59.72398393609552
 30
0.0
 11
111.8325463305698
 21
63.48863237359552
 31
0.0
  0
LINE
  5
2E5
330
1F
100
AcDbEntity
  8
100
  6
Continuous
 62
     7
370
    30
100
AcDbLine
 10
112.1548119555698
 20
56.16441362359552
 30
0.0
 11
112.1108666430698
 21
59.72398393609552
 31
0.0
  0
LINE
  5
2E6
330
1F
100
AcDbEntity
  8
100
  6
Continuous
 62
     7
370
    30
100
AcDbLine
 10
116.7220438139542
 20
59.1422324686645
 30
0.0
 11
112.1108666430698
 21
59.72398393609552
 31
0.0
  0
LINE
  5
2E7
330
1F
100
AcDbEntity
  8
100
  6
Continuous
 62
     7
370
    30
100
AcDbLine
 10
115.9780541430698
 20
56.17906206109552
 30
0.0
 11
116.2124291430698
 21
56.20835893609552
 31
0.0
  0
LINE
  5
2E8
330
1F
100
AcDbEntity
  8
100
  6
Continuous
 62
     7
370
    30
100
AcDbLine
 10
117.5893822680698
 20
66.75523393609552
 30
0.0
 11
117.5307885180698
 21
63.23960893609552
 31
0.0
  0
LINE
  5
2E9
330
1F
100
AcDbEntity
  8
100
  6
Continuous
 62
     7
370
    30
100
AcDbLine
 10
117.3257103930698
 20
69.68492143609552
 30
0.0
 11
117.5893822680698
 21
66.75523393609552
 31
0.0
  0
LINE
  5
2EA
330
1F
100
AcDbEntity
  8
100
  6
Continuous
 62
     7
370
    30
100
AcDbLine
 10
117.0913353930698
 20
71.99937456109552
 30
0.0
 11
117.3257103930698
 21
69.68492143609552
 31
0.0
  0
LINE
  5
2EB
330
1F
100
AcDbEntity
  8
100
  6
Continuous
 62
     7
370
    30
100
AcDbLine
 10
116.5346947680698
 20
74.75328081109552
 30
0.0
 11
117.0913353930698
 21
71.99937456109552
 31
0.0
  0
LINE
  5
2EC
330
1F
100
AcDbEntity
  8
100
  6
Continuous
 62
     7
370
    30
100
AcDbLine
 10
115.7436791430698
 20
77.65367143609552
 30
0.0
 11
116.5346947680698
 21
74.75328081109552
 31
0.0
  0
LINE
  5
2ED
330
1F
100
AcDbEntity
  8
100
  6
Continuous
 62
     7
370
    30
100
AcDbLine
 10
115.0112572680698
 20
79.96812456109552
 30
0.0
 11
115.7436791430698
 21
77.65367143609552
 31
0.0
  0
LINE
  5
2EE
330
1F
100
AcDbEntity
  8
100
  6
Continuous
 62
     7
370
    30
100
AcDbLine
 10
113.8100853930698
 20
83.10289018609552
 30
0.0
 11
115.0112572680698
 21
79.96812456109552
 31
0.0
  0
LINE
  5
2EF
330
1F
100
AcDbEntity
  8
100
  6
Continuous
 62
     7
370
    30
100
AcDbLine
 10
111.7593041430698
 20
87.05796831109552
 30
0.0
 11
113.8100853930698
 21
83.10289018609552
 31
0.0
  0
LINE
  5
2F0
330
1F
100
AcDbEntity
  8
100
  6
Continuous
 62
     7
370
    30
100
AcDbLine
 10
110.0893822680698
 20
89.75328081109552
 30
0.0
 11
111.7593041430698
 21
87.05796831109552
 31
0.0
  0
LINE
  5
2F1
330
1F
100
AcDbEntity
  8
100
  6
Continuous
 62
     7
370
    30
100
AcDbLine
 10
107.6577416430698
 20
92.82945268609552
 30
0.0
 11
110.0893822680698
 21
89.75328081109552
 31
0.0
  0
LINE
  5
2F2
330
1F
100
AcDbEntity
  8
100
  6
Continuous
 62
     7
370
    30
100
AcDbLine
 10
104.7280541430698
 20
96.11070268609552
 30
0.0
 11
107.6577416430698
 21
92.82945268609552
 31
0.0
  0
LINE
  5
2F3
330
1F
100
AcDbEntity
  8
100
  6
Continuous
 62
     7
370
    30
100
AcDbLine
 10
101.0952416430698
 20
99.36265581109552
 30
0.0
 11
104.7280541430698
 21
96.11070268609552
 31
0.0
  0
LINE
  5
2F4
330
1F
100
AcDbEntity
  8
100
  6
Continuous
 62
     7
370
    30
100
AcDbLine
 10
97.66750726806984
 20
101.7064058110955
 30
0.0
 11
101.0952416430698
 21
99.36265581109552
 31
0.0
  0
LINE
  5
2F5
330
1F
100
AcDbEntity
  8
100
  6
Continuous
 62
     7
370
    30
100
AcDbLine
 10
94.32766351806984
 20
103.7864839360955
 30
0.0
 11
97.66750726806984
 21
101.7064058110955
 31
0.0
  0
LINE
  5
2F6
330
1F
100
AcDbEntity
  8
100
  6
Continuous
 62
     7
370
    30
100
AcDbLine
 10
91.22219476806984
 20
105.2806245610955
 30
0.0
 11
94.32766351806984
 21
103.7864839360955
 31
0.0
  0
LINE
  5
2F7
330
1F
100
AcDbEntity
  8
100
  6
Continuous
 62
     7
370
    30
100
AcDbLine
 10
88.38039789306984
 20
106.3646089360955
 30
0.0
 11
91.22219476806984
 21
105.2806245610955
 31
0.0
  0
LINE
  5
2F8
330
1F
100
AcDbEntity
  8
100
  6
Continuous
 62
     7
370
    30
100
AcDbLine
 10
85.36281976806984
 20
107.3607026860955
 30
0.0
 11
88.38039789306984
 21
106.3646089360955
 31
0.0
  0
LINE
  5
2F9
330
1F
100
AcDbEntity
  8
100
  6
Continuous
 62
     7
370
    30
100
AcDbLine
 10
82.49172601806984
 20
108.0638276860955
 30
0.0
 11
85.36281976806984
 21
107.3607026860955
 31
0.0
  0
LINE
  5
2FA
330
1F
100
AcDbEntity
  8
100
  6
Continuous
 62
     7
370
    30
100
AcDbLine
 10
79.67922601806984
 20
108.3567964360955
 30
0.0
 11
82.49172601806984
 21
108.0638276860955
 31
0.0
  0
LINE
  5
2FB
330
1F
100
AcDbEntity
  8
100
  6
Continuous
 62
     7
370
    30
100
AcDbLine
 10
77.42336664306984
 20
108.2982026860955
 30
0.0
 11
79.67922601806984
 21
108.3567964360955
 31
0.0
  0
LINE
  5
2FC
330
1F
100
AcDbEntity
  8
100
  6
Continuous
 62
     7
370
    30
100
AcDbLine
 10
74.90383539306984
 20
108.0931245610955
 30
0.0
 11
77.42336664306984
 21
108.2982026860955
 31
0.0
  0
LINE
  5
2FD
330
1F
100
AcDbEntity
  8
100
  6
Continuous
 62
     7
370
    30
100
AcDbLine
 10
72.79446039306984
 20
107.7708589360955
 30
0.0
 11
74.90383539306984
 21
108.0931245610955
 31
0.0
  0
LINE
  5
2FE
330
1F
100
AcDbEntity
  8
100
  6
Continuous
 62
     7
370
    30
100
AcDbLine
 10
69.95266351806984
 20
107.7415620610955
 30
0.0
 11
72.79446039306984
 21
107.7708589360955
 31
0.0
  0
LINE
  5
2FF
330
1F
100
AcDbEntity
  8
100
  6
Continuous
 62
     7
370
    30
100
AcDbLine
 10
67.98977289306984
 20
107.7122651860955
 30
0.0
 11
69.95266351806984
 21
107.7415620610955
 31
0.0
  0
LINE
  5
300
330
1F
100
AcDbEntity
  8
100
  6
Continuous
 62
     7
370
    30
100
AcDbLine
 10
72.58938226806984
 20
111.0814058110955
 30
0.0
 11
71.38821039306984
 21
111.2571870610955
 31
0.0
  0
LINE
  5
301
330
1F
100
AcDbEntity
  8
100
  6
Continuous
 62
     7
370
    30
100
AcDbLine
 10
74.08352289306984
 20
111.2571870610955
 30
0.0
 11
72.58938226806984
 21
111.0814058110955
 31
0.0
  0
LINE
  5
302
330
1F
100
AcDbEntity
  8
100
  6
Continuous
 62
     7
370
    30
100
AcDbLine
 10
76.63235101806984
 20
111.6380464360955
 30
0.0
 11
74.08352289306984
 21
111.2571870610955
 31
0.0
  0
LINE
  5
303
330
1F
100
AcDbEntity
  8
100
  6
Continuous
 62
     7
370
    30
100
AcDbLine
 10
78.82961664306984
 20
111.8724214360955
 30
0.0
 11
76.63235101806984
 21
111.6380464360955
 31
0.0
  0
LINE
  5
304
330
1F
100
AcDbEntity
  8
100
  6
Continuous
 62
     7
370
    30
100
AcDbLine
 10
81.46633539306984
 20
111.7259370610955
 30
0.0
 11
78.82961664306984
 21
111.8724214360955
 31
0.0
  0
LINE
  5
305
330
1F
100
AcDbEntity
  8
100
  6
Continuous
 62
     7
370
    30
100
AcDbLine
 10
84.27883539306984
 20
111.3157808110955
 30
0.0
 11
81.46633539306984
 21
111.7259370610955
 31
0.0
  0
LINE
  5
306
330
1F
100
AcDbEntity
  8
100
  6
Continuous
 62
     7
370
    30
100
AcDbLine
 10
87.17922601806984
 20
110.5247651860955
 30
0.0
 11
84.27883539306984
 21
111.3157808110955
 31
0.0
  0
LINE
  5
307
330
1F
100
AcDbEntity
  8
100
  6
Continuous
 62
     7
370
    30
100
AcDbLine
 10
90.19680414306984
 20
109.5872651860955
 30
0.0
 11
87.17922601806984
 21
110.5247651860955
 31
0.0
  0
LINE
  5
308
330
1F
100
AcDbEntity
  8
100
  6
Continuous
 62
     7
370
    30
100
AcDbLine
 10
93.44875726806984
 20
108.2103120610955
 30
0.0
 11
90.19680414306984
 21
109.5872651860955
 31
0.0
  0
LINE
  5
309
330
1F
100
AcDbEntity
  8
100
  6
Continuous
 62
     7
370
    30
100
AcDbLine
 10
96.58352289306984
 20
106.5110933110955
 30
0.0
 11
93.44875726806984
 21
108.2103120610955
 31
0.0
  0
LINE
  5
30A
330
1F
100
AcDbEntity
  8
100
  6
Continuous
 62
     7
370
    30
100
AcDbLine
 10
99.42531976806984
 20
104.8997651860955
 30
0.0
 11
96.58352289306984
 21
106.5110933110955
 31
0.0
  0
LINE
  5
30B
330
1F
100
AcDbEntity
  8
100
  6
Continuous
 62
     7
370
    30
100
AcDbLine
 10
102.5600853930698
 20
102.7610933110955
 30
0.0
 11
99.42531976806984
 21
104.8997651860955
 31
0.0
  0
LINE
  5
30C
330
1F
100
AcDbEntity
  8
100
  6
Continuous
 62
     7
370
    30
100
AcDbLine
 10
105.0503197680698
 20
100.6517183110955
 30
0.0
 11
102.5600853930698
 21
102.7610933110955
 31
0.0
  0
LINE
  5
30D
330
1F
100
AcDbEntity
  8
100
  6
Continuous
 62
     7
370
    30
100
AcDbLine
 10
107.3647728930698
 20
98.48374956109552
 30
0.0
 11
105.0503197680698
 21
100.6517183110955
 31
0.0
  0
LINE
  5
30E
330
1F
100
AcDbEntity
  8
100
  6
Continuous
 62
     7
370
    30
100
AcDbLine
 10
109.6499291430698
 20
96.19859331109552
 30
0.0
 11
107.3647728930698
 21
98.48374956109552
 31
0.0
  0
LINE
  5
30F
330
1F
100
AcDbEntity
  8
100
  6
Continuous
 62
     7
370
    30
100
AcDbLine
 10
111.0268822680698
 20
94.38218706109552
 30
0.0
 11
109.6499291430698
 21
96.19859331109552
 31
0.0
  0
LINE
  5
310
330
1F
100
AcDbEntity
  8
100
  6
Continuous
 62
     7
370
    30
100
AcDbLine
 10
112.6675072680698
 20
91.95054643609552
 30
0.0
 11
111.0268822680698
 21
94.38218706109552
 31
0.0
  0
LINE
  5
311
330
1F
100
AcDbEntity
  8
100
  6
Continuous
 62
     7
370
    30
100
AcDbLine
 10
114.6889916430698
 20
88.99156206109552
 30
0.0
 11
112.6675072680698
 21
91.95054643609552
 31
0.0
  0
LINE
  5
312
330
1F
100
AcDbEntity
  8
100
  6
Continuous
 62
     7
370
    30
100
AcDbLine
 10
115.9194603930698
 20
86.82359331109552
 30
0.0
 11
114.6889916430698
 21
88.99156206109552
 31
0.0
  0
LINE
  5
313
330
1F
100
AcDbEntity
  8
100
  6
Continuous
 62
     7
370
    30
100
AcDbLine
 10
117.3843041430698
 20
83.54234331109552
 30
0.0
 11
115.9194603930698
 21
86.82359331109552
 31
0.0
  0
LINE
  5
314
330
1F
100
AcDbEntity
  8
100
  6
Continuous
 62
     7
370
    30
100
AcDbLine
 10
118.4682885180698
 20
80.43687456109552
 30
0.0
 11
117.3843041430698
 21
83.54234331109552
 31
0.0
  0
LINE
  5
315
330
1F
100
AcDbEntity
  8
100
  6
Continuous
 62
     7
370
    30
100
AcDbLine
 10
119.3471947680698
 20
77.82945268609552
 30
0.0
 11
118.4682885180698
 21
80.43687456109552
 31
0.0
  0
LINE
  5
316
330
1F
100
AcDbEntity
  8
100
  6
Continuous
 62
     7
370
    30
100
AcDbLine
 10
119.7866478930698
 20
75.77867143609552
 30
0.0
 11
119.3471947680698
 21
77.82945268609552
 31
0.0
  0
LINE
  5
317
330
1F
100
AcDbEntity
  8
100
  6
Continuous
 62
     7
370
    30
100
AcDbLine
 10
120.1675072680698
 20
74.02085893609552
 30
0.0
 11
119.7866478930698
 21
75.77867143609552
 31
0.0
  0
LINE
  5
318
330
1F
100
AcDbEntity
  8
100
  6
Continuous
 62
     7
370
    30
100
AcDbLine
 10
120.5776635180698
 20
72.14585893609552
 30
0.0
 11
120.1675072680698
 21
74.02085893609552
 31
0.0
  0
LINE
  5
319
330
1F
100
AcDbEntity
  8
100
  6
Continuous
 62
     7
370
    30
100
AcDbLine
 10
120.8120385180698
 20
70.32945268609552
 30
0.0
 11
120.5776635180698
 21
72.14585893609552
 31
0.0
  0
LINE
  5
31A
330
1F
100
AcDbEntity
  8
100
  6
Continuous
 62
     7
370
    30
100
AcDbLine
 10
121.1050072680698
 20
67.42906206109552
 30
0.0
 11
120.8120385180698
 21
70.32945268609552
 31
0.0
  0
LINE
  5
31B
330
1F
100
AcDbEntity
  8
100
  6
Continuous
 62
     7
370
    30
100
AcDbLine
 10
121.1343041430698
 20
64.79234331109552
 30
0.0
 11
121.1050072680698
 21
67.42906206109552
 31
0.0
  0
LINE
  5
31C
330
1F
100
AcDbEntity
  8
100
  6
Continuous
 62
     7
370
    30
100
AcDbLine
 10
120.8999291430698
 20
62.09703081109552
 30
0.0
 11
121.1343041430698
 21
64.79234331109552
 31
0.0
  0
LINE
  5
31D
330
1F
100
AcDbEntity
  8
100
  6
Continuous
 62
     7
370
    30
100
AcDbLine
 10
119.1128197680698
 20
56.64781206109552
 30
0.0
 11
119.9917260180698
 21
57.14585893609552
 31
0.0
  0
LINE
  5
31E
330
1F
100
AcDbEntity
  8
100
  6
Continuous
 62
     7
370
    30
100
AcDbLine
 10
117.7651635180698
 20
56.32554643609552
 30
0.0
 11
119.1128197680698
 21
56.64781206109552
 31
0.0
  0
LINE
  5
31F
330
1F
100
AcDbEntity
  8
100
  6
Continuous
 62
     7
370
    30
100
AcDbLine
 10
116.2124291430698
 20
56.20835893609552
 30
0.0
 11
117.7651635180698
 21
56.32554643609552
 31
0.0
  0
MTEXT
  5
320
330
1F
100
AcDbEntity
  8
1
  6
DOT
 62
     7
370
     9
100
AcDbMText
 10
9.750400753773242
 20
211.6887980932925
 30
0.0
 40
25.0
 41
119.9335944819307
 46
25.0
 71
     7
 72
     1
  1
{\fＭＳ ゴシック;\W0.714286;（2-DK-B）}
 73
     1
 44
1.0
  0
MTEXT
  5
321
330
1F
100
AcDbEntity
  8
100
  6
Continuous
 62
     7
370
     9
100
AcDbMText
 10
-42.28352316971527
 20
180.5200180834861
 30
0.0
 40
25.0
 41
282.8636869856196
 46
25.0
 71
     7
 72
     1
  1
{\fＭＳ ゴシック;\W0.714286;２号デッキブラック}
 73
     1
 44
1.0
  0
LINE
  5
322
330
1F
100
AcDbEntity
  8
1
  6
Continuous
 62
     7
370
    30
100
AcDbLine
 10
30.7874330902247
 20
54.83643365791222
 30
0.0
 11
30.65128163996318
 21
50.14505415464885
 31
0.0
  0
LINE
  5
323
330
1F
100
AcDbEntity
  8
1
  6
Continuous
 62
     7
370
    30
100
AcDbLine
 10
33.88271722900733
 20
53.04429643609552
 30
0.0
 11
33.94450613715377
 21
54.1164991447565
 31
0.0
  0
LINE
  5
324
330
1F
100
AcDbEntity
  8
1
  6
Continuous
 62
     7
370
    30
100
AcDbLine
 10
30.54287347900733
 20
28.69859331109552
 30
0.0
 11
30.74795160400733
 21
14.16734331109552
 31
0.0
  0
LINE
  5
325
330
1F
100
AcDbEntity
  8
1
  6
Continuous
 62
     7
370
    30
100
AcDbLine
 10
33.48321976848779
 20
28.00654463069418
 30
0.0
 11
33.76552972900733
 21
12.73179643609552
 31
0.0
  0
LINE
  5
326
330
1F
100
AcDbEntity
  8
1
  6
Continuous
 62
     7
370
    30
100
AcDbLine
 10
56.62382270308355
 20
-6.033880064620311
 30
0.0
 11
56.62073155253677
 21
2.366224054447654
 31
0.0
  0
LINE
  5
327
330
1F
100
AcDbEntity
  8
1
  6
Continuous
 62
     7
370
    30
100
AcDbLine
 10
56.64777992603845
 20
7.499283012064994
 30
0.0
 11
56.98330316650733
 21
13.09800737359552
 31
0.0
  0
LINE
  5
328
330
1F
100
AcDbEntity
  8
1
  6
Continuous
 62
     7
370
    30
100
AcDbLine
 10
60.98232660400733
 20
15.38316362359552
 30
0.0
 11
60.92385316005232
 21
6.909425408578396
 31
0.0
  0
LINE
  5
329
330
1F
100
AcDbEntity
  8
1
  6
Continuous
 62
     7
370
    30
100
AcDbLine
 10
60.85049066650733
 20
-5.783828563904478
 30
0.0
 11
60.8328506715013
 21
1.892463138251214
 31
0.0
  0
LINE
  5
32A
330
1F
100
AcDbEntity
  8
1
  6
Continuous
 62
     7
370
    30
100
AcDbLine
 10
57.24111878103405
 20
62.59213822061037
 30
0.0
 11
57.13186520364272
 21
57.10459979846413
 31
0.0
  0
LINE
  5
32B
330
1F
100
AcDbEntity
  8
1
  6
Continuous
 62
     7
370
    30
100
AcDbLine
 10
56.94076417856483
 20
51.89888383377943
 30
0.0
 11
56.98330316650733
 21
43.21519487359552
 31
0.0
  0
LINE
  5
32C
330
1F
100
AcDbEntity
  8
1
  6
Continuous
 62
     7
370
    30
100
AcDbLine
 10
61.15810785400733
 20
43.74253862359552
 30
0.0
 11
61.30082856504111
 21
51.62930370562142
 31
0.0
  0
LINE
  5
32D
330
1F
100
AcDbEntity
  8
1
  6
Continuous
 62
     7
370
    30
100
AcDbLine
 10
61.33134192524093
 20
56.78460504685896
 30
0.0
 11
61.35403070556983
 21
62.22886674859552
 31
0.0
  0
LINE
  5
32E
330
1F
100
AcDbEntity
  8
1
  6
Continuous
 62
     7
370
    30
100
AcDbLine
 10
30.61611566650733
 20
59.68003862359552
 30
0.0
 11
30.8132267441862
 21
64.15988372093015
 31
0.0
  0
LINE
  5
32F
330
1F
100
AcDbEntity
  8
1
  6
Continuous
 62
     7
370
    30
100
AcDbLine
 10
30.8132267441862
 20
64.15988372093015
 30
0.0
 11
31.08793604651179
 21
67.57848837209298
 31
0.0
  0
LINE
  5
330
330
1F
100
AcDbEntity
  8
100
  6
Continuous
 62
     7
370
    30
100
AcDbLine
 10
30.71955120077488
 20
62.03087134459356
 30
0.0
 11
29.42959222900733
 21
61.89195268609552
 31
0.0
  0
LINE
  5
331
330
1F
100
AcDbEntity
  8
1
  6
Continuous
 62
     7
370
    30
100
AcDbLine
 10
30.65128163996318
 20
50.14505415464885
 30
0.0
 11
30.60146722900733
 21
49.26499956109552
 31
0.0
  0
LINE
  5
332
330
1F
100
AcDbEntity
  8
1
  6
Continuous
 62
     7
370
    30
100
AcDbLine
 10
31.08793604651179
 20
67.57848837209298
 30
0.0
 11
31.45993822674434
 21
71.69817405523267
 31
0.0
  0
LINE
  5
333
330
1F
100
AcDbEntity
  8
1
  6
Continuous
 62
     7
370
    30
100
AcDbLine
 10
31.45993822674434
 20
71.69817405523267
 30
0.0
 11
32.2089552808835
 21
75.04929614266378
 31
0.0
  0
LINE
  5
334
330
1F
100
AcDbEntity
  8
1
  6
Continuous
 62
     7
370
    30
100
AcDbLine
 10
34.64141398395424
 20
64.25036885736786
 30
0.0
 11
35.01589752906993
 21
70.35515079941868
 31
0.0
  0
LINE
  5
335
330
1F
100
AcDbEntity
  8
1
  6
Continuous
 62
     7
370
    30
100
AcDbLine
 10
35.01589752906993
 20
70.35515079941868
 30
0.0
 11
35.50426962209318
 21
74.71997638081403
 31
0.0
  0
LINE
  5
336
330
1F
100
AcDbEntity
  8
1
  6
Continuous
 62
     7
370
    30
100
AcDbLine
 10
35.50426962209318
 20
74.71997638081403
 30
0.0
 11
36.71892581637321
 21
80.5933702760984
 31
0.0
  0
LINE
  5
337
330
1F
100
AcDbEntity
  8
1
  6
Continuous
 62
     7
370
    30
100
AcDbLine
 10
36.71892581637321
 20
80.5933702760984
 30
0.0
 11
37.36904535400733
 21
82.44371049859552
 31
0.0
  0
LINE
  5
338
330
1F
100
AcDbEntity
  8
1
  6
Continuous
 62
     7
370
    30
100
AcDbLine
 10
34.64141398395424
 20
64.25036885736786
 30
0.0
 11
34.27822504150733
 21
59.15269487359552
 31
0.0
  0
LINE
  5
339
330
1F
100
AcDbEntity
  8
100
  6
Continuous
 62
     7
370
    30
100
AcDbLine
 10
30.62784230399543
 20
22.67794514051051
 30
0.0
 11
29.59072504150733
 21
22.31187456109552
 31
0.0
  0
LINE
  5
33A
330
1F
100
AcDbEntity
  8
100
  6
Continuous
 62
     7
370
    30
100
AcDbLine
 10
30.30849847900733
 20
18.53257768609552
 30
0.0
 11
30.68415172561191
 21
18.68802040882845
 31
0.0
  0
LINE
  5
33B
330
1F
100
AcDbEntity
  8
1
  6
Continuous
 62
     7
370
    30
100
AcDbLine
 10
33.48321976848779
 20
28.00654463069418
 30
0.0
 11
33.38467035400733
 21
30.01695268609552
 31
0.0
  0
LINE
  5
33C
330
1F
100
AcDbEntity
  8
1
  6
Continuous
 62
     7
370
    30
100
AcDbLine
 10
33.57221404097339
 20
23.1913935801348
 30
0.0
 11
34.20498285400733
 21
23.24937456109552
 31
0.0
  0
LINE
  5
33D
330
1F
100
AcDbEntity
  8
1
  6
Continuous
 62
     7
370
    30
100
AcDbLine
 10
33.64332288537936
 20
19.34395691615345
 30
0.0
 11
34.22046084456361
 21
19.43662955406662
 31
0.0
  0
LINE
  5
33E
330
1F
100
AcDbEntity
  8
1
  6
Continuous
 62
     7
370
    30
100
AcDbLine
 10
56.60244379150733
 20
-6.281875438904478
 30
0.0
 11
56.62382270308355
 21
-6.033880064620311
 31
0.0
  0
LINE
  5
33F
330
1F
100
AcDbEntity
  8
100
  6
Continuous
 62
     7
370
    30
100
AcDbLine
 10
57.16457758056983
 20
65.83238237359552
 30
0.0
 11
57.24111878103405
 21
62.59213822061044
 31
0.0
  0
LINE
  5
340
330
1F
100
AcDbEntity
  8
1
  6
Continuous
 62
     7
370
    30
100
AcDbLine
 10
114.2994814700658
 20
5.703244683372229
 30
0.0
 11
114.0243187915073
 21
-18.77699262640448
 31
0.0
  0
LINE
  5
341
330
1F
100
AcDbEntity
  8
1
  6
Continuous
 62
     7
370
    30
100
AcDbLine
 10
114.3026391040073
 20
10.44664018609552
 30
0.0
 11
116.7858697392947
 21
51.58602416646519
 31
0.0
  0
LINE
  5
342
330
1F
100
AcDbEntity
  8
1
  6
Continuous
 62
     7
370
    30
100
AcDbLine
 10
119.660353344131
 20
52.13236132540619
 30
0.0
 11
117.1039012125186
 21
12.75284365054874
 31
0.0
  0
LINE
  5
343
330
1F
100
AcDbEntity
  8
1
  6
Continuous
 62
     7
370
    30
100
AcDbLine
 10
117.7450219165073
 20
-18.60121137640448
 30
0.0
 11
117.9337387049802
 21
7.362362116702679
 31
0.0
  0
LINE
  5
344
330
1F
100
AcDbEntity
  8
100
  6
Continuous
 62
     7
370
    30
100
AcDbLine
 10
110.1065123842204
 20
-6.310380815278194
 30
0.0
 11
114.138988463101
 21
-8.575242928544286
 31
0.0
  0
LINE
  5
345
330
1F
100
AcDbEntity
  8
100
  6
Continuous
 62
     7
370
    30
100
AcDbLine
 10
117.1039012125186
 20
12.75284365054873
 30
0.0
 11
116.2948266040073
 21
11.53062456109552
 31
0.0
  0
LINE
  5
346
330
1F
100
AcDbEntity
  8
100
  6
Continuous
 62
     7
370
    30
100
AcDbLine
 10
113.1600609790073
 20
16.54039018609552
 30
0.0
 11
114.6038241091284
 21
15.43633602776764
 31
0.0
  0
LINE
  5
347
330
1F
100
AcDbEntity
  8
100
  6
Continuous
 62
     7
370
    30
100
AcDbLine
 10
110.9690936748732
 20
21.64115498595592
 30
0.0
 11
114.8732820722095
 21
19.90041377078391
 31
0.0
  0
LINE
  5
348
330
1F
100
AcDbEntity
  8
1
  6
Continuous
 62
     7
370
    30
100
AcDbLine
 10
118.9016084677372
 20
17.3644837003075
 30
0.0
 11
117.4827972836656
 21
18.58934821332173
 31
0.0
  0
LINE
  5
349
330
1F
100
AcDbEntity
  8
1
  6
Continuous
 62
     7
370
    30
100
AcDbLine
 10
116.7274424882671
 20
56.24722786780852
 30
0.0
 11
117.2588199626011
 21
61.60779760328316
 31
0.0
  0
LINE
  5
34A
330
1F
100
AcDbEntity
  8
1
  6
Continuous
 62
     7
370
    30
100
AcDbLine
 10
120.8180861763668
 20
61.74101390593726
 30
0.0
 11
119.9917260180698
 21
57.14585893609552
 31
0.0
  0
LINE
  5
34B
330
1F
100
AcDbEntity
  8
1
  6
Continuous
 62
     7
370
    30
100
AcDbLine
 10
116.7220438139542
 20
59.1422324686645
 30
0.0
 11
117.0098269573408
 21
59.09594034020316
 31
0.0
  0
LINE
  5
34C
330
1F
100
AcDbEntity
  8
100
  6
Continuous
 62
     7
370
    30
100
AcDbLine
 10
121.8758812915073
 20
57.49742143609552
 30
0.0
 11
120.2100361855714
 21
58.35981999301419
 31
0.0
  0
LINE
  5
34D
330
1F
100
AcDbEntity
  8
1
  6
Continuous
 62
     7
370
    30
100
AcDbLine
 10
117.2588199626011
 20
61.60779760328316
 30
0.0
 11
117.5307885180698
 21
63.23960893609552
 31
0.0
  0
LINE
  5
34E
330
1F
100
AcDbEntity
  8
1
  6
Continuous
 62
     7
370
    30
100
AcDbLine
 10
120.8180861763668
 20
61.74101390593726
 30
0.0
 11
120.8999291430698
 21
62.09703081109552
 31
0.0
  0
ENDSEC
  0
SECTION
  2
OBJECTS
  0
DICTIONARY
  5
C
330
0
100
AcDbDictionary
281
     1
  3
ACAD_DETAILVIEWSTYLE
350
356
  3
ACAD_GROUP
350
D
  3
ACAD_LAYOUT
350
1A
  3
ACAD_MATERIAL
350
43
  3
ACAD_MLEADERSTYLE
350
6B
  3
ACAD_MLINESTYLE
350
17
  3
ACAD_PLOTSETTINGS
350
19
  3
ACAD_PLOTSTYLENAME
350
E
  3
ACAD_SCALELIST
350
47
  3
ACAD_SECTIONVIEWSTYLE
350
357
  3
ACAD_TABLESTYLE
350
69
  3
ACAD_VISUALSTYLE
350
2A
  3
ACDB_RECOMPOSE_DATA
350
353
  3
AcDbVariableDictionary
350
34F
  0
SUN
  5
6D
330
29
100
AcDbSun
 90
        1
290
     0
 63
     7
421
 16777215
 40
1.0
291
     1
 91
  2455826
 92
 54000000
292
     0
 70
     2
 71
   256
280
     1
  0
DICTIONARY
  5
356
102
{ACAD_REACTORS
330
C
102
}
330
C
100
AcDbDictionary
281
     1
  0
DICTIONARY
  5
D
102
{ACAD_REACTORS
330
C
102
}
330
C
100
AcDbDictionary
281
     1
  0
DICTIONARY
  5
1A
102
{ACAD_REACTORS
330
C
102
}
330
C
100
AcDbDictionary
281
     1
  3
Layout1
350
1E
  3
Layout2
350
26
  3
Model
350
22
  0
DICTIONARY
  5
43
102
{ACAD_REACTORS
330
C
102
}
330
C
100
AcDbDictionary
281
     1
  3
ByBlock
350
45
  3
ByLayer
350
44
  3
Global
350
46
  0
DICTIONARY
  5
6B
102
{ACAD_REACTORS
330
C
102
}
330
C
100
AcDbDictionary
281
     1
  3
Standard
350
6C
  0
DICTIONARY
  5
17
102
{ACAD_REACTORS
330
C
102
}
330
C
100
AcDbDictionary
281
     1
  3
Standard
350
18
  0
DICTIONARY
  5
19
102
{ACAD_REACTORS
330
C
102
}
330
C
100
AcDbDictionary
281
     1
  0
ACDBDICTIONARYWDFLT
  5
E
102
{ACAD_REACTORS
330
C
102
}
330
C
100
AcDbDictionary
281
     1
  3
Normal
350
F
100
AcDbDictionaryWithDefault
340
F
  0
DICTIONARY
  5
47
102
{ACAD_REACTORS
330
C
102
}
330
C
100
AcDbDictionary
281
     1
  3
A0
350
48
  3
A1
350
49
  3
A2
350
4A
  3
A3
350
4B
  3
A4
350
4C
  3
A5
350
4D
  3
A6
350
4E
  3
A7
350
4F
  3
A8
350
50
  3
A9
350
51
  3
B0
350
52
  3
B1
350
53
  3
B2
350
54
  3
B3
350
55
  3
B4
350
56
  3
B5
350
57
  3
B6
350
58
  3
B7
350
59
  3
B8
350
5A
  3
B9
350
5B
  3
C0
350
5C
  3
C1
350
5D
  3
C2
350
5E
  3
C3
350
5F
  3
C4
350
60
  3
C5
350
61
  3
C6
350
62
  3
C7
350
63
  3
C8
350
64
  3
C9
350
65
  3
D0
350
66
  3
D1
350
67
  3
D2
350
68
  0
DICTIONARY
  5
357
102
{ACAD_REACTORS
330
C
102
}
330
C
100
AcDbDictionary
281
     1
  0
DICTIONARY
  5
69
102
{ACAD_REACTORS
330
C
102
}
330
C
100
AcDbDictionary
281
     1
  3
Standard
350
6A
  0
DICTIONARY
  5
2A
102
{ACAD_REACTORS
330
C
102
}
330
C
100
AcDbDictionary
281
     1
  3
2dWireframe
350
2F
  3
Basic
350
32
  3
Brighten
350
36
  3
ColorChange
350
3A
  3
Conceptual
350
34
  3
Dim
350
35
  3
EdgeColorOff
350
3D
  3
Facepattern
350
39
  3
Flat
350
2B
  3
FlatWithEdges
350
2C
  3
Gouraud
350
2D
  3
GouraudWithEdges
350
2E
  3
Hidden
350
31
  3
JitterOff
350
3B
  3
Linepattern
350
38
  3
OverhangOff
350
3C
  3
Realistic
350
33
  3
Shaded
350
42
  3
Shaded with edges
350
41
  3
Shades of Gray
350
3E
  3
Sketchy
350
3F
  3
Thicken
350
37
  3
Wireframe
350
30
  3
X-Ray
350
40
  0
XRECORD
  5
353
102
{ACAD_REACTORS
330
C
102
}
330
C
100
AcDbXrecord
280
     1
 90
        1
330
6A
  0
DICTIONARY
  5
34F
102
{ACAD_REACTORS
330
C
102
}
330
C
100
AcDbDictionary
281
     1
  3
CANNOSCALE
350
350
  3
CMLEADERSTYLE
350
355
  3
CTABLESTYLE
350
354
  0
LAYOUT
  5
1E
102
{ACAD_REACTORS
330
1A
102
}
330
1A
100
AcDbPlotSettings
  1

  2
none_device
  4

  6

 40
0.0
 41
0.0
 42
0.0
 43
0.0
 44
0.0
 45
0.0
 46
0.0
 47
0.0
 48
0.0
 49
0.0
140
0.0
141
0.0
142
1.0
143
1.0
 70
   688
 72
     0
 73
     0
 74
     5
  7

 75
    16
 76
     0
 77
     2
 78
   300
147
1.0
148
0.0
149
0.0
100
AcDbLayout
  1
Layout1
 70
     1
 71
     1
 10
0.0
 20
0.0
 11
297.0
 21
210.0
 12
0.0
 22
0.0
 32
0.0
 14
0.0
 24
0.0
 34
0.0
 15
297.0
 25
210.0
 35
0.0
146
0.0
 13
0.0
 23
0.0
 33
0.0
 16
1.0
 26
0.0
 36
0.0
 17
0.0
 27
1.0
 37
0.0
 76
     0
330
1B
  0
LAYOUT
  5
26
102
{ACAD_REACTORS
330
1A
102
}
330
1A
100
AcDbPlotSettings
  1

  2
none_device
  4

  6

 40
0.0
 41
0.0
 42
0.0
 43
0.0
 44
0.0
 45
0.0
 46
0.0
 47
0.0
 48
0.0
 49
0.0
140
0.0
141
0.0
142
1.0
143
1.0
 70
   688
 72
     0
 73
     0
 74
     5
  7

 75
    16
 76
     0
 77
     2
 78
   300
147
1.0
148
0.0
149
0.0
100
AcDbLayout
  1
Layout2
 70
     1
 71
     2
 10
0.0
 20
0.0
 11
0.0
 21
0.0
 12
0.0
 22
0.0
 32
0.0
 14
0.0
 24
0.0
 34
0.0
 15
0.0
 25
0.0
 35
0.0
146
0.0
 13
0.0
 23
0.0
 33
0.0
 16
1.0
 26
0.0
 36
0.0
 17
0.0
 27
1.0
 37
0.0
 76
     0
330
23
  0
LAYOUT
  5
22
102
{ACAD_REACTORS
330
1A
102
}
330
1A
100
AcDbPlotSettings
  1

  2
none_device
  4
Letter_(8.50_x_11.00_Inches)
  6

 40
6.35
 41
6.35
 42
6.35000508
 43
6.35000508
 44
215.9
 45
279.4
 46
0.0
 47
0.0
 48
0.0
 49
0.0
140
0.0
141
0.0
142
1.0
143
1.0
 70
  1712
 72
     0
 73
     0
 74
     0
  7

 75
     0
 76
     0
 77
     2
 78
   300
147
1.0
148
0.0
149
0.0
100
AcDbLayout
  1
Model
 70
     1
 71
     0
 10
0.0
 20
0.0
 11
297.0
 21
210.0
 12
0.0
 22
0.0
 32
0.0
 14
-42.28352316971527
 24
-140.9748825528775
 34
0.0
 15
183.2122813034843
 25
236.6887980932925
 35
0.0
146
0.0
 13
0.0
 23
0.0
 33
0.0
 16
1.0
 26
0.0
 36
0.0
 17
0.0
 27
1.0
 37
0.0
 76
     0
330
1F
331
29
  0
MATERIAL
  5
45
102
{ACAD_REACTORS
330
43
102
}
330
43
100
AcDbMaterial
  1
ByBlock
 72
     1
 94
      127
  0
MATERIAL
  5
44
102
{ACAD_REACTORS
330
43
102
}
330
43
100
AcDbMaterial
  1
ByLayer
 72
     1
 94
      127
  0
MATERIAL
  5
46
102
{ACAD_REACTORS
330
43
102
}
330
43
100
AcDbMaterial
  1
Global
 72
     1
 94
      127
  0
MLEADERSTYLE
  5
6C
102
{ACAD_REACTORS
330
6B
102
}
330
6B
100
AcDbMLeaderStyle
179
     2
170
     2
171
     1
172
     0
 90
        2
 40
0.0
 41
0.0
173
     1
 91
-1056964608
340
14
 92
       -2
290
     1
 42
0.09
291
     1
 43
0.36
  3
Standard
341
0
 44
0.18
300

342
11
174
     1
178
     6
175
     1
176
     0
 93
-1056964608
 45
0.18
292
     0
297
     0
 46
0.18
343
0
 94
-1056964608
 47
1.0
 49
1.0
140
1.0
293
     1
141
0.0
294
     1
177
     0
142
1.0
295
     0
296
     0
143
0.125
271
     0
272
     9
273
     9
298
     0
  0
MLINESTYLE
  5
18
102
{ACAD_REACTORS
330
17
102
}
330
17
100
AcDbMlineStyle
  2
Standard
 70
     0
  3

 62
   256
 51
90.0
 52
90.0
 71
     2
 49
0.5
 62
   256
  6
BYLAYER
 49
-0.5
 62
   256
  6
BYLAYER
  0
ACDBPLACEHOLDER
  5
F
102
{ACAD_REACTORS
330
E
102
}
330
E
  0
SCALE
  5
48
102
{ACAD_REACTORS
330
47
102
}
330
47
100
AcDbScale
 70
     0
300
1:1
140
1.0
141
1.0
290
     1
  0
SCALE
  5
49
102
{ACAD_REACTORS
330
47
102
}
330
47
100
AcDbScale
 70
     0
300
1:2
140
1.0
141
2.0
290
     0
  0
SCALE
  5
4A
102
{ACAD_REACTORS
330
47
102
}
330
47
100
AcDbScale
 70
     0
300
1:4
140
1.0
141
4.0
290
     0
  0
SCALE
  5
4B
102
{ACAD_REACTORS
330
47
102
}
330
47
100
AcDbScale
 70
     0
300
1:5
140
1.0
141
5.0
290
     0
  0
SCALE
  5
4C
102
{ACAD_REACTORS
330
47
102
}
330
47
100
AcDbScale
 70
     0
300
1:8
140
1.0
141
8.0
290
     0
  0
SCALE
  5
4D
102
{ACAD_REACTORS
330
47
102
}
330
47
100
AcDbScale
 70
     0
300
1:10
140
1.0
141
10.0
290
     0
  0
SCALE
  5
4E
102
{ACAD_REACTORS
330
47
102
}
330
47
100
AcDbScale
 70
     0
300
1:16
140
1.0
141
16.0
290
     0
  0
SCALE
  5
4F
102
{ACAD_REACTORS
330
47
102
}
330
47
100
AcDbScale
 70
     0
300
1:20
140
1.0
141
20.0
290
     0
  0
SCALE
  5
50
102
{ACAD_REACTORS
330
47
102
}
330
47
100
AcDbScale
 70
     0
300
1:30
140
1.0
141
30.0
290
     0
  0
SCALE
  5
51
102
{ACAD_REACTORS
330
47
102
}
330
47
100
AcDbScale
 70
     0
300
1:40
140
1.0
141
40.0
290
     0
  0
SCALE
  5
52
102
{ACAD_REACTORS
330
47
102
}
330
47
100
AcDbScale
 70
     0
300
1:50
140
1.0
141
50.0
290
     0
  0
SCALE
  5
53
102
{ACAD_REACTORS
330
47
102
}
330
47
100
AcDbScale
 70
     0
300
1:100
140
1.0
141
100.0
290
     0
  0
SCALE
  5
54
102
{ACAD_REACTORS
330
47
102
}
330
47
100
AcDbScale
 70
     0
300
2:1
140
2.0
141
1.0
290
     0
  0
SCALE
  5
55
102
{ACAD_REACTORS
330
47
102
}
330
47
100
AcDbScale
 70
     0
300
4:1
140
4.0
141
1.0
290
     0
  0
SCALE
  5
56
102
{ACAD_REACTORS
330
47
102
}
330
47
100
AcDbScale
 70
     0
300
8:1
140
8.0
141
1.0
290
     0
  0
SCALE
  5
57
102
{ACAD_REACTORS
330
47
102
}
330
47
100
AcDbScale
 70
     0
300
10:1
140
10.0
141
1.0
290
     0
  0
SCALE
  5
58
102
{ACAD_REACTORS
330
47
102
}
330
47
100
AcDbScale
 70
     0
300
100:1
140
100.0
141
1.0
290
     0
  0
SCALE
  5
59
102
{ACAD_REACTORS
330
47
102
}
330
47
100
AcDbScale
 70
     0
300
1/128" = 1'-0"
140
0.0078125
141
12.0
290
     0
  0
SCALE
  5
5A
102
{ACAD_REACTORS
330
47
102
}
330
47
100
AcDbScale
 70
     0
300
1/64" = 1'-0"
140
0.015625
141
12.0
290
     0
  0
SCALE
  5
5B
102
{ACAD_REACTORS
330
47
102
}
330
47
100
AcDbScale
 70
     0
300
1/32" = 1'-0"
140
0.03125
141
12.0
290
     0
  0
SCALE
  5
5C
102
{ACAD_REACTORS
330
47
102
}
330
47
100
AcDbScale
 70
     0
300
1/16" = 1'-0"
140
0.0625
141
12.0
290
     0
  0
SCALE
  5
5D
102
{ACAD_REACTORS
330
47
102
}
330
47
100
AcDbScale
 70
     0
300
3/32" = 1'-0"
140
0.09375
141
12.0
290
     0
  0
SCALE
  5
5E
102
{ACAD_REACTORS
330
47
102
}
330
47
100
AcDbScale
 70
     0
300
1/8" = 1'-0"
140
0.125
141
12.0
290
     0
  0
SCALE
  5
5F
102
{ACAD_REACTORS
330
47
102
}
330
47
100
AcDbScale
 70
     0
300
3/16" = 1'-0"
140
0.1875
141
12.0
290
     0
  0
SCALE
  5
60
102
{ACAD_REACTORS
330
47
102
}
330
47
100
AcDbScale
 70
     0
300
1/4" = 1'-0"
140
0.25
141
12.0
290
     0
  0
SCALE
  5
61
102
{ACAD_REACTORS
330
47
102
}
330
47
100
AcDbScale
 70
     0
300
3/8" = 1'-0"
140
0.375
141
12.0
290
     0
  0
SCALE
  5
62
102
{ACAD_REACTORS
330
47
102
}
330
47
100
AcDbScale
 70
     0
300
1/2" = 1'-0"
140
0.5
141
12.0
290
     0
  0
SCALE
  5
63
102
{ACAD_REACTORS
330
47
102
}
330
47
100
AcDbScale
 70
     0
300
3/4" = 1'-0"
140
0.75
141
12.0
290
     0
  0
SCALE
  5
64
102
{ACAD_REACTORS
330
47
102
}
330
47
100
AcDbScale
 70
     0
300
1" = 1'-0"
140
1.0
141
12.0
290
     0
  0
SCALE
  5
65
102
{ACAD_REACTORS
330
47
102
}
330
47
100
AcDbScale
 70
     0
300
1-1/2" = 1'-0"
140
1.5
141
12.0
290
     0
  0
SCALE
  5
66
102
{ACAD_REACTORS
330
47
102
}
330
47
100
AcDbScale
 70
     0
300
3" = 1'-0"
140
3.0
141
12.0
290
     0
  0
SCALE
  5
67
102
{ACAD_REACTORS
330
47
102
}
330
47
100
AcDbScale
 70
     0
300
6" = 1'-0"
140
6.0
141
12.0
290
     0
  0
SCALE
  5
68
102
{ACAD_REACTORS
330
47
102
}
330
47
100
AcDbScale
 70
     0
300
1'-0" = 1'-0"
140
12.0
141
12.0
290
     0
  0
TABLESTYLE
  5
6A
102
{ACAD_REACTORS
330
69
102
}
102
{ACAD_XDICTIONARY
360
351
102
}
330
69
100
AcDbTableStyle
  3
Standard
 70
     0
 71
     0
 40
0.06
 41
0.06
280
     0
281
     0
  7
Standard
140
0.18
170
     2
 62
     0
 63
   257
283
     0
 90
        4
 91
        0
  1

274
    -2
284
     1
 64
     0
275
    -2
285
     1
 65
     0
276
    -2
286
     1
 66
     0
277
    -2
287
     1
 67
     0
278
    -2
288
     1
 68
     0
279
    -2
289
     1
 69
     0
  7
Standard
140
0.25
170
     5
 62
     0
 63
   257
283
     0
 90
        4
 91
        0
  1

274
    -2
284
     1
 64
     0
275
    -2
285
     1
 65
     0
276
    -2
286
     1
 66
     0
277
    -2
287
     1
 67
     0
278
    -2
288
     1
 68
     0
279
    -2
289
     1
 69
     0
  7
Standard
140
0.18
170
     5
 62
     0
 63
   257
283
     0
 90
        4
 91
        0
  1

274
    -2
284
     1
 64
     0
275
    -2
285
     1
 65
     0
276
    -2
286
     1
 66
     0
277
    -2
287
     1
 67
     0
278
    -2
288
     1
 68
     0
279
    -2
289
     1
 69
     0
  0
VISUALSTYLE
  5
2F
102
{ACAD_REACTORS
330
2A
102
}
330
2A
100
AcDbVisualStyle
  2
2dWireframe
 70
     4
177
     3
291
     0
 70
    58
 90
        0
176
     1
 90
        2
176
     1
 90
        0
176
     1
 90
        0
176
     1
 40
0.6
176
     1
 40
30.0
176
     1
 62
     7
420
 16777215
176
     1
 90
        1
176
     1
 90
        4
176
     1
 62
     7
176
     1
 62
   257
176
     1
 90
        1
176
     1
 90
        1
176
     1
 40
1.0
176
     1
 90
        0
176
     1
 62
   257
176
     1
 40
1.0
176
     1
 90
        1
176
     1
 90
        6
176
     1
 90
        2
176
     1
 62
     7
176
     1
 90
        5
176
     1
 90
        0
176
     1
 90
        0
176
     1
290
     0
176
     1
 90
        1
176
     1
 40
0.0
176
     1
 90
        0
176
     1
290
     1
176
     1
290
     1
176
     1
290
     0
176
     1
290
     0
176
     1
290
     0
176
     1
290
     0
176
     1
290
     0
176
     1
290
     0
176
     1
290
     0
176
     1
 90
       50
176
     1
 40
0.0
176
     1
 40
1.0
176
     1
 90
        0
176
     1
 62
    18
420
        0
176
     1
 90
       50
176
     1
 90
        3
176
     1
 62
     5
420
      255
176
     1
290
     0
176
     1
 90
       50
176
     1
 90
       50
176
     1
 90
       50
176
     1
290
     0
176
     1
 90
       50
176
     1
 62
   256
176
     0
 40
1.0
176
     0
 90
        2
176
     1
  1
strokes_ogs.tif
176
     1
290
     0
176
     1
 40
1.0
176
     1
 40
1.0
176
     1
  0
VISUALSTYLE
  5
32
102
{ACAD_REACTORS
330
2A
102
}
330
2A
100
AcDbVisualStyle
  2
Basic
 70
     7
177
     3
291
     1
 70
    58
 90
        1
176
     1
 90
        0
176
     1
 90
        1
176
     1
 90
        0
176
     1
 40
0.6
176
     1
 40
30.0
176
     1
 62
     7
420
 16777215
176
     1
 90
        0
176
     1
 90
        4
176
     1
 62
     7
176
     1
 62
   257
176
     1
 90
        1
176
     1
 90
        1
176
     1
 40
1.0
176
     1
 90
        8
176
     1
 62
     7
176
     1
 40
1.0
176
     1
 90
        1
176
     1
 90
        6
176
     1
 90
        2
176
     1
 62
     7
176
     1
 90
        5
176
     1
 90
        0
176
     1
 90
        0
176
     1
290
     0
176
     1
 90
        1
176
     1
 40
0.0
176
     1
 90
        0
176
     1
290
     0
176
     1
290
     1
176
     1
290
     1
176
     1
290
     0
176
     1
290
     0
176
     1
290
     0
176
     1
290
     0
176
     1
290
     0
176
     1
290
     0
176
     1
 90
       50
176
     1
 40
0.0
176
     1
 40
1.0
176
     1
 90
        0
176
     1
 62
    18
420
        0
176
     1
 90
       50
176
     1
 90
        3
176
     1
 62
     5
420
      255
176
     1
290
     0
176
     1
 90
       50
176
     1
 90
       50
176
     1
 90
       50
176
     1
290
     0
176
     1
 90
       50
176
     1
 62
   256
176
     0
 40
1.0
176
     0
 90
        2
176
     1
  1
strokes_ogs.tif
176
     1
290
     0
176
     1
 40
1.0
176
     1
 40
1.0
176
     1
  0
VISUALSTYLE
  5
36
102
{ACAD_REACTORS
330
2A
102
}
330
2A
100
AcDbVisualStyle
  2
Brighten
 70
    12
177
     3
291
     1
 70
    58
 90
        2
176
     1
 90
        2
176
     1
 90
        0
176
     1
 90
        0
176
     1
 40
0.6
176
     1
 40
30.0
176
     1
 62
     7
420
 16777215
176
     1
 90
        1
176
     1
 90
        4
176
     1
 62
     7
176
     1
 62
   257
176
     1
 90
        1
176
     1
 90
        1
176
     1
 40
1.0
176
     1
 90
        8
176
     1
 62
     7
176
     1
 40
1.0
176
     1
 90
        1
176
     1
 90
        6
176
     1
 90
        2
176
     1
 62
     7
176
     1
 90
        5
176
     1
 90
        0
176
     1
 90
        0
176
     1
290
     0
176
     1
 90
        1
176
     1
 40
50.0
176
     1
 90
        0
176
     1
290
     0
176
     1
290
     1
176
     1
290
     1
176
     1
290
     0
176
     1
290
     0
176
     1
290
     0
176
     1
290
     0
176
     1
290
     0
176
     1
290
     0
176
     1
 90
       50
176
     1
 40
0.0
176
     1
 40
1.0
176
     1
 90
        0
176
     1
 62
    18
420
        0
176
     1
 90
       50
176
     1
 90
        3
176
     1
 62
     5
420
      255
176
     1
290
     0
176
     1
 90
       50
176
     1
 90
       50
176
     1
 90
       50
176
     1
290
     0
176
     1
 90
       50
176
     1
 62
   256
176
     0
 40
1.0
176
     0
 90
        2
176
     1
  1
strokes_ogs.tif
176
     1
290
     0
176
     1
 40
1.0
176
     1
 40
1.0
176
     1
  0
VISUALSTYLE
  5
3A
102
{ACAD_REACTORS
330
2A
102
}
330
2A
100
AcDbVisualStyle
  2
ColorChange
 70
    16
177
     3
291
     1
 70
    58
 90
        2
176
     1
 90
        2
176
     1
 90
        3
176
     1
 90
        0
176
     1
 40
0.6
176
     1
 40
30.0
176
     1
 62
     8
420
  8421504
176
     1
 90
        1
176
     1
 90
        4
176
     1
 62
     7
176
     1
 62
   257
176
     1
 90
        1
176
     1
 90
        1
176
     1
 40
1.0
176
     1
 90
        8
176
     1
 62
     8
420
  8421504
176
     1
 40
1.0
176
     1
 90
        1
176
     1
 90
        6
176
     1
 90
        2
176
     1
 62
     7
176
     1
 90
        5
176
     1
 90
        0
176
     1
 90
        0
176
     1
290
     0
176
     1
 90
        1
176
     1
 40
0.0
176
     1
 90
        0
176
     1
290
     0
176
     1
290
     1
176
     1
290
     1
176
     1
290
     0
176
     1
290
     0
176
     1
290
     0
176
     1
290
     0
176
     1
290
     0
176
     1
290
     0
176
     1
 90
       50
176
     1
 40
0.0
176
     1
 40
1.0
176
     1
 90
        0
176
     1
 62
    18
420
        0
176
     1
 90
       50
176
     1
 90
        3
176
     1
 62
     5
420
      255
176
     1
290
     0
176
     1
 90
       50
176
     1
 90
       50
176
     1
 90
       50
176
     1
290
     0
176
     1
 90
       50
176
     1
 62
   256
176
     0
 40
1.0
176
     0
 90
        2
176
     1
  1
strokes_ogs.tif
176
     1
290
     0
176
     1
 40
1.0
176
     1
 40
1.0
176
     1
  0
VISUALSTYLE
  5
34
102
{ACAD_REACTORS
330
2A
102
}
330
2A
100
AcDbVisualStyle
  2
Conceptual
 70
     9
177
     3
291
     0
 70
    58
 90
        3
176
     1
 90
        2
176
     1
 90
        0
176
     1
 90
        0
176
     1
 40
0.6
176
     1
 40
30.0
176
     1
 62
     7
420
 16777215
176
     1
 90
        2
176
     1
 90
        2
176
     1
 62
     7
176
     1
 62
   257
176
     1
 90
        1
176
     1
 90
        1
176
     1
 40
179.0
176
     1
 90
        8
176
     1
 62
     7
176
     1
 40
1.0
176
     1
 90
        1
176
     1
 90
        6
176
     1
 90
        2
176
     1
 62
     7
176
     1
 90
        3
176
     1
 90
        0
176
     1
 90
        0
176
     1
290
     0
176
     1
 90
        1
176
     1
 40
0.0
176
     1
 90
        0
176
     1
290
     0
176
     1
290
     1
176
     1
290
     1
176
     1
290
     0
176
     1
290
     0
176
     1
290
     0
176
     1
290
     0
176
     1
290
     0
176
     1
290
     0
176
     1
 90
       50
176
     1
 40
0.0
176
     1
 40
1.0
176
     1
 90
        0
176
     1
 62
    18
420
        0
176
     1
 90
       50
176
     1
 90
        3
176
     1
 62
     5
420
      255
176
     1
290
     0
176
     1
 90
       50
176
     1
 90
       50
176
     1
 90
       50
176
     1
290
     0
176
     1
 90
       50
176
     1
 62
   256
176
     0
 40
1.0
176
     0
 90
        2
176
     1
  1
strokes_ogs.tif
176
     1
290
     0
176
     1
 40
1.0
176
     1
 40
1.0
176
     1
  0
VISUALSTYLE
  5
35
102
{ACAD_REACTORS
330
2A
102
}
330
2A
100
AcDbVisualStyle
  2
Dim
 70
    11
177
     3
291
     1
 70
    58
 90
        2
176
     1
 90
        2
176
     1
 90
        0
176
     1
 90
        0
176
     1
 40
0.6
176
     1
 40
30.0
176
     1
 62
     7
420
 16777215
176
     1
 90
        1
176
     1
 90
        4
176
     1
 62
     7
176
     1
 62
   257
176
     1
 90
        1
176
     1
 90
        1
176
     1
 40
1.0
176
     1
 90
        8
176
     1
 62
     7
176
     1
 40
1.0
176
     1
 90
        1
176
     1
 90
        6
176
     1
 90
        2
176
     1
 62
     7
176
     1
 90
        5
176
     1
 90
        0
176
     1
 90
        0
176
     1
290
     0
176
     1
 90
        1
176
     1
 40
-50.0
176
     1
 90
        0
176
     1
290
     0
176
     1
290
     1
176
     1
290
     1
176
     1
290
     0
176
     1
290
     0
176
     1
290
     0
176
     1
290
     0
176
     1
290
     0
176
     1
290
     0
176
     1
 90
       50
176
     1
 40
0.0
176
     1
 40
1.0
176
     1
 90
        0
176
     1
 62
    18
420
        0
176
     1
 90
       50
176
     1
 90
        3
176
     1
 62
     5
420
      255
176
     1
290
     0
176
     1
 90
       50
176
     1
 90
       50
176
     1
 90
       50
176
     1
290
     0
176
     1
 90
       50
176
     1
 62
   256
176
     0
 40
1.0
176
     0
 90
        2
176
     1
  1
strokes_ogs.tif
176
     1
290
     0
176
     1
 40
1.0
176
     1
 40
1.0
176
     1
  0
VISUALSTYLE
  5
3D
102
{ACAD_REACTORS
330
2A
102
}
330
2A
100
AcDbVisualStyle
  2
EdgeColorOff
 70
    22
177
     3
291
     1
 70
    58
 90
        2
176
     0
 90
        2
176
     0
 90
        0
176
     0
 90
        0
176
     0
 40
0.6
176
     0
 40
30.0
176
     0
 62
     7
420
 16777215
176
     0
 90
        1
176
     0
 90
        4
176
     0
 62
     7
176
     0
 62
   257
176
     0
 90
        1
176
     0
 90
        1
176
     0
 40
1.0
176
     0
 90
        8
176
     2
 62
     7
176
     0
 40
1.0
176
     0
 90
        1
176
     0
 90
        6
176
     0
 90
        2
176
     0
 62
     7
176
     0
 90
        5
176
     0
 90
        0
176
     0
 90
        0
176
     0
290
     0
176
     0
 90
        1
176
     0
 40
0.0
176
     0
 90
        0
176
     0
290
     0
176
     0
290
     1
176
     0
290
     1
176
     0
290
     0
176
     0
290
     0
176
     0
290
     0
176
     0
290
     0
176
     0
290
     0
176
     0
290
     0
176
     0
 90
       50
176
     0
 40
0.0
176
     0
 40
1.0
176
     0
 90
        0
176
     0
 62
    18
420
        0
176
     0
 90
       50
176
     0
 90
        3
176
     0
 62
     5
420
      255
176
     0
290
     0
176
     0
 90
       50
176
     0
 90
       50
176
     0
 90
       50
176
     0
290
     0
176
     0
 90
       50
176
     0
 62
   256
176
     0
 40
1.0
176
     0
 90
        2
176
     0
  1
strokes_ogs.tif
176
     0
290
     0
176
     0
 40
1.0
176
     0
 40
1.0
176
     0
  0
VISUALSTYLE
  5
39
102
{ACAD_REACTORS
330
2A
102
}
330
2A
100
AcDbVisualStyle
  2
Facepattern
 70
    15
177
     3
291
     1
 70
    58
 90
        2
176
     1
 90
        2
176
     1
 90
        0
176
     1
 90
        0
176
     1
 40
0.6
176
     1
 40
30.0
176
     1
 62
     7
420
 16777215
176
     1
 90
        1
176
     1
 90
        4
176
     1
 62
     7
176
     1
 62
   257
176
     1
 90
        1
176
     1
 90
        1
176
     1
 40
1.0
176
     1
 90
        8
176
     1
 62
     7
176
     1
 40
1.0
176
     1
 90
        1
176
     1
 90
        6
176
     1
 90
        2
176
     1
 62
     7
176
     1
 90
        5
176
     1
 90
        0
176
     1
 90
        0
176
     1
290
     0
176
     1
 90
        1
176
     1
 40
0.0
176
     1
 90
        0
176
     1
290
     0
176
     1
290
     1
176
     1
290
     1
176
     1
290
     0
176
     1
290
     0
176
     1
290
     0
176
     1
290
     0
176
     1
290
     0
176
     1
290
     0
176
     1
 90
       50
176
     1
 40
0.0
176
     1
 40
1.0
176
     1
 90
        0
176
     1
 62
    18
420
        0
176
     1
 90
       50
176
     1
 90
        3
176
     1
 62
     5
420
      255
176
     1
290
     0
176
     1
 90
       50
176
     1
 90
       50
176
     1
 90
       50
176
     1
290
     0
176
     1
 90
       50
176
     1
 62
   256
176
     0
 40
1.0
176
     0
 90
        2
176
     1
  1
strokes_ogs.tif
176
     1
290
     0
176
     1
 40
1.0
176
     1
 40
1.0
176
     1
  0
VISUALSTYLE
  5
2B
102
{ACAD_REACTORS
330
2A
102
}
330
2A
100
AcDbVisualStyle
  2
Flat
 70
     0
177
     3
291
     1
 70
    58
 90
        2
176
     1
 90
        1
176
     1
 90
        1
176
     1
 90
        2
176
     1
 40
0.6
176
     1
 40
30.0
176
     1
 62
     7
420
 16777215
176
     1
 90
        0
176
     1
 90
        0
176
     1
 62
     7
176
     1
 62
   257
176
     1
 90
        1
176
     1
 90
        1
176
     1
 40
1.0
176
     1
 90
        8
176
     1
 62
     7
176
     1
 40
1.0
176
     1
 90
        1
176
     1
 90
        6
176
     1
 90
        2
176
     1
 62
     7
176
     1
 90
        5
176
     1
 90
        0
176
     1
 90
        0
176
     1
290
     0
176
     1
 90
       13
176
     1
 40
0.0
176
     1
 90
        0
176
     1
290
     0
176
     1
290
     1
176
     1
290
     1
176
     1
290
     0
176
     1
290
     0
176
     1
290
     0
176
     1
290
     0
176
     1
290
     0
176
     1
290
     0
176
     1
 90
       50
176
     1
 40
0.0
176
     1
 40
1.0
176
     1
 90
        0
176
     1
 62
    18
420
        0
176
     1
 90
       50
176
     1
 90
        3
176
     1
 62
     5
420
      255
176
     1
290
     0
176
     1
 90
       50
176
     1
 90
       50
176
     1
 90
       50
176
     1
290
     0
176
     1
 90
       50
176
     1
 62
   256
176
     0
 40
1.0
176
     0
 90
        2
176
     1
  1
strokes_ogs.tif
176
     1
290
     0
176
     1
 40
1.0
176
     1
 40
1.0
176
     1
  0
VISUALSTYLE
  5
2C
102
{ACAD_REACTORS
330
2A
102
}
330
2A
100
AcDbVisualStyle
  2
FlatWithEdges
 70
     1
177
     3
291
     1
 70
    58
 90
        2
176
     1
 90
        1
176
     1
 90
        1
176
     1
 90
        2
176
     1
 40
0.6
176
     1
 40
30.0
176
     1
 62
     7
420
 16777215
176
     1
 90
        1
176
     1
 90
        0
176
     1
 62
     7
176
     1
 62
   257
176
     1
 90
        1
176
     1
 90
        1
176
     1
 40
1.0
176
     1
 90
        0
176
     1
 62
   257
176
     1
 40
1.0
176
     1
 90
        1
176
     1
 90
        6
176
     1
 90
        2
176
     1
 62
     7
176
     1
 90
        5
176
     1
 90
        0
176
     1
 90
        0
176
     1
290
     0
176
     1
 90
       13
176
     1
 40
0.0
176
     1
 90
        0
176
     1
290
     0
176
     1
290
     1
176
     1
290
     1
176
     1
290
     0
176
     1
290
     0
176
     1
290
     0
176
     1
290
     0
176
     1
290
     0
176
     1
290
     0
176
     1
 90
       50
176
     1
 40
0.0
176
     1
 40
1.0
176
     1
 90
        0
176
     1
 62
    18
420
        0
176
     1
 90
       50
176
     1
 90
        3
176
     1
 62
     5
420
      255
176
     1
290
     0
176
     1
 90
       50
176
     1
 90
       50
176
     1
 90
       50
176
     1
290
     0
176
     1
 90
       50
176
     1
 62
   256
176
     0
 40
1.0
176
     0
 90
        2
176
     1
  1
strokes_ogs.tif
176
     1
290
     0
176
     1
 40
1.0
176
     1
 40
1.0
176
     1
  0
VISUALSTYLE
  5
2D
102
{ACAD_REACTORS
330
2A
102
}
330
2A
100
AcDbVisualStyle
  2
Gouraud
 70
     2
177
     3
291
     1
 70
    58
 90
        2
176
     1
 90
        2
176
     1
 90
        1
176
     1
 90
        2
176
     1
 40
0.6
176
     1
 40
30.0
176
     1
 62
     7
420
 16777215
176
     1
 90
        0
176
     1
 90
        0
176
     1
 62
     7
176
     1
 62
   257
176
     1
 90
        1
176
     1
 90
        1
176
     1
 40
1.0
176
     1
 90
        0
176
     1
 62
     7
176
     1
 40
1.0
176
     1
 90
        1
176
     1
 90
        6
176
     1
 90
        2
176
     1
 62
     7
176
     1
 90
        5
176
     1
 90
        0
176
     1
 90
        0
176
     1
290
     0
176
     1
 90
       13
176
     1
 40
0.0
176
     1
 90
        0
176
     1
290
     0
176
     1
290
     1
176
     1
290
     1
176
     1
290
     0
176
     1
290
     0
176
     1
290
     0
176
     1
290
     0
176
     1
290
     0
176
     1
290
     0
176
     1
 90
       50
176
     1
 40
0.0
176
     1
 40
1.0
176
     1
 90
        0
176
     1
 62
    18
420
        0
176
     1
 90
       50
176
     1
 90
        3
176
     1
 62
     5
420
      255
176
     1
290
     0
176
     1
 90
       50
176
     1
 90
       50
176
     1
 90
       50
176
     1
290
     0
176
     1
 90
       50
176
     1
 62
   256
176
     0
 40
1.0
176
     0
 90
        2
176
     1
  1
strokes_ogs.tif
176
     1
290
     0
176
     1
 40
1.0
176
     1
 40
1.0
176
     1
  0
VISUALSTYLE
  5
2E
102
{ACAD_REACTORS
330
2A
102
}
330
2A
100
AcDbVisualStyle
  2
GouraudWithEdges
 70
     3
177
     3
291
     1
 70
    58
 90
        2
176
     1
 90
        2
176
     1
 90
        1
176
     1
 90
        2
176
     1
 40
0.6
176
     1
 40
30.0
176
     1
 62
     7
420
 16777215
176
     1
 90
        1
176
     1
 90
        0
176
     1
 62
     7
176
     1
 62
   257
176
     1
 90
        1
176
     1
 90
        1
176
     1
 40
1.0
176
     1
 90
        0
176
     1
 62
   257
176
     1
 40
1.0
176
     1
 90
        1
176
     1
 90
        6
176
     1
 90
        2
176
     1
 62
     7
176
     1
 90
        5
176
     1
 90
        0
176
     1
 90
        0
176
     1
290
     0
176
     1
 90
       13
176
     1
 40
0.0
176
     1
 90
        0
176
     1
290
     0
176
     1
290
     1
176
     1
290
     1
176
     1
290
     0
176
     1
290
     0
176
     1
290
     0
176
     1
290
     0
176
     1
290
     0
176
     1
290
     0
176
     1
 90
       50
176
     1
 40
0.0
176
     1
 40
1.0
176
     1
 90
        0
176
     1
 62
    18
420
        0
176
     1
 90
       50
176
     1
 90
        3
176
     1
 62
     5
420
      255
176
     1
290
     0
176
     1
 90
       50
176
     1
 90
       50
176
     1
 90
       50
176
     1
290
     0
176
     1
 90
       50
176
     1
 62
   256
176
     0
 40
1.0
176
     0
 90
        2
176
     1
  1
strokes_ogs.tif
176
     1
290
     0
176
     1
 40
1.0
176
     1
 40
1.0
176
     1
  0
VISUALSTYLE
  5
31
102
{ACAD_REACTORS
330
2A
102
}
330
2A
100
AcDbVisualStyle
  2
Hidden
 70
     6
177
     3
291
     0
 70
    58
 90
        1
176
     1
 90
        2
176
     1
 90
        2
176
     1
 90
        0
176
     1
 40
0.6
176
     1
 40
30.0
176
     1
 62
     7
420
 16777215
176
     1
 90
        2
176
     1
 90
        2
176
     1
 62
     7
176
     1
 62
   257
176
     1
 90
        2
176
     1
 90
        1
176
     1
 40
40.0
176
     1
 90
        0
176
     1
 62
   257
176
     1
 40
1.0
176
     1
 90
        1
176
     1
 90
        6
176
     1
 90
        2
176
     1
 62
     7
176
     1
 90
        3
176
     1
 90
        0
176
     1
 90
        0
176
     1
290
     0
176
     1
 90
        1
176
     1
 40
0.0
176
     1
 90
        0
176
     1
290
     0
176
     1
290
     1
176
     1
290
     1
176
     1
290
     0
176
     1
290
     0
176
     1
290
     0
176
     1
290
     0
176
     1
290
     0
176
     1
290
     0
176
     1
 90
       50
176
     1
 40
0.0
176
     1
 40
1.0
176
     1
 90
        0
176
     1
 62
    18
420
        0
176
     1
 90
       50
176
     1
 90
        3
176
     1
 62
     5
420
      255
176
     1
290
     0
176
     1
 90
       50
176
     1
 90
       50
176
     1
 90
       50
176
     1
290
     0
176
     1
 90
       50
176
     1
 62
   256
176
     0
 40
1.0
176
     0
 90
        2
176
     1
  1
strokes_ogs.tif
176
     1
290
     0
176
     1
 40
1.0
176
     1
 40
1.0
176
     1
  0
VISUALSTYLE
  5
3B
102
{ACAD_REACTORS
330
2A
102
}
330
2A
100
AcDbVisualStyle
  2
JitterOff
 70
    20
177
     3
291
     1
 70
    58
 90
        2
176
     0
 90
        2
176
     0
 90
        0
176
     0
 90
        0
176
     0
 40
0.6
176
     0
 40
30.0
176
     0
 62
     7
420
 16777215
176
     0
 90
        1
176
     0
 90
        4
176
     0
 62
     7
176
     0
 62
   257
176
     0
 90
        1
176
     0
 90
        1
176
     0
 40
1.0
176
     0
 90
       10
176
     2
 62
     7
176
     0
 40
1.0
176
     0
 90
        1
176
     0
 90
        6
176
     0
 90
        2
176
     0
 62
     7
176
     0
 90
        5
176
     0
 90
        0
176
     0
 90
        0
176
     0
290
     0
176
     0
 90
        1
176
     0
 40
0.0
176
     0
 90
        0
176
     0
290
     0
176
     0
290
     1
176
     0
290
     1
176
     0
290
     0
176
     0
290
     0
176
     0
290
     0
176
     0
290
     0
176
     0
290
     0
176
     0
290
     0
176
     0
 90
       50
176
     0
 40
0.0
176
     0
 40
1.0
176
     0
 90
        0
176
     0
 62
    18
420
        0
176
     0
 90
       50
176
     0
 90
        3
176
     0
 62
     5
420
      255
176
     0
290
     0
176
     0
 90
       50
176
     0
 90
       50
176
     0
 90
       50
176
     0
290
     0
176
     0
 90
       50
176
     0
 62
   256
176
     0
 40
1.0
176
     0
 90
        2
176
     0
  1
strokes_ogs.tif
176
     0
290
     0
176
     0
 40
1.0
176
     0
 40
1.0
176
     0
  0
VISUALSTYLE
  5
38
102
{ACAD_REACTORS
330
2A
102
}
330
2A
100
AcDbVisualStyle
  2
Linepattern
 70
    14
177
     3
291
     1
 70
    58
 90
        2
176
     1
 90
        2
176
     1
 90
        0
176
     1
 90
        0
176
     1
 40
0.6
176
     1
 40
30.0
176
     1
 62
     7
420
 16777215
176
     1
 90
        1
176
     1
 90
        4
176
     1
 62
     7
176
     1
 62
   257
176
     1
 90
        7
176
     1
 90
        7
176
     1
 40
1.0
176
     1
 90
        8
176
     1
 62
     7
176
     1
 40
1.0
176
     1
 90
        1
176
     1
 90
        6
176
     1
 90
        2
176
     1
 62
     7
176
     1
 90
        5
176
     1
 90
        0
176
     1
 90
        0
176
     1
290
     0
176
     1
 90
        1
176
     1
 40
0.0
176
     1
 90
        0
176
     1
290
     0
176
     1
290
     1
176
     1
290
     1
176
     1
290
     0
176
     1
290
     0
176
     1
290
     0
176
     1
290
     0
176
     1
290
     0
176
     1
290
     0
176
     1
 90
       50
176
     1
 40
0.0
176
     1
 40
1.0
176
     1
 90
        0
176
     1
 62
    18
420
        0
176
     1
 90
       50
176
     1
 90
        3
176
     1
 62
     5
420
      255
176
     1
290
     0
176
     1
 90
       50
176
     1
 90
       50
176
     1
 90
       50
176
     1
290
     0
176
     1
 90
       50
176
     1
 62
   256
176
     0
 40
1.0
176
     0
 90
        2
176
     1
  1
strokes_ogs.tif
176
     1
290
     0
176
     1
 40
1.0
176
     1
 40
1.0
176
     1
  0
VISUALSTYLE
  5
3C
102
{ACAD_REACTORS
330
2A
102
}
330
2A
100
AcDbVisualStyle
  2
OverhangOff
 70
    21
177
     3
291
     1
 70
    58
 90
        2
176
     0
 90
        2
176
     0
 90
        0
176
     0
 90
        0
176
     0
 40
0.6
176
     0
 40
30.0
176
     0
 62
     7
420
 16777215
176
     0
 90
        1
176
     0
 90
        4
176
     0
 62
     7
176
     0
 62
   257
176
     0
 90
        1
176
     0
 90
        1
176
     0
 40
1.0
176
     0
 90
        9
176
     2
 62
     7
176
     0
 40
1.0
176
     0
 90
        1
176
     0
 90
        6
176
     0
 90
        2
176
     0
 62
     7
176
     0
 90
        5
176
     0
 90
        0
176
     0
 90
        0
176
     0
290
     0
176
     0
 90
        1
176
     0
 40
0.0
176
     0
 90
        0
176
     0
290
     0
176
     0
290
     1
176
     0
290
     1
176
     0
290
     0
176
     0
290
     0
176
     0
290
     0
176
     0
290
     0
176
     0
290
     0
176
     0
290
     0
176
     0
 90
       50
176
     0
 40
0.0
176
     0
 40
1.0
176
     0
 90
        0
176
     0
 62
    18
420
        0
176
     0
 90
       50
176
     0
 90
        3
176
     0
 62
     5
420
      255
176
     0
290
     0
176
     0
 90
       50
176
     0
 90
       50
176
     0
 90
       50
176
     0
290
     0
176
     0
 90
       50
176
     0
 62
   256
176
     0
 40
1.0
176
     0
 90
        2
176
     0
  1
strokes_ogs.tif
176
     0
290
     0
176
     0
 40
1.0
176
     0
 40
1.0
176
     0
  0
VISUALSTYLE
  5
33
102
{ACAD_REACTORS
330
2A
102
}
330
2A
100
AcDbVisualStyle
  2
Realistic
 70
     8
177
     3
291
     0
 70
    58
 90
        2
176
     1
 90
        3
176
     1
 90
        0
176
     1
 90
        2
176
     1
 40
0.6
176
     1
 40
30.0
176
     1
 62
     7
420
 16777215
176
     1
 90
        0
176
     1
 90
        0
176
     1
 62
     7
176
     1
 62
   257
176
     1
 90
        1
176
     1
 90
        1
176
     1
 40
1.0
176
     1
 90
        8
176
     1
 62
   257
176
     1
 40
1.0
176
     1
 90
        1
176
     1
 90
        6
176
     1
 90
        2
176
     1
 62
     7
176
     1
 90
        3
176
     1
 90
        0
176
     1
 90
        0
176
     1
290
     0
176
     1
 90
       13
176
     1
 40
0.0
176
     1
 90
        0
176
     1
290
     0
176
     1
290
     1
176
     1
290
     1
176
     1
290
     0
176
     1
290
     0
176
     1
290
     0
176
     1
290
     0
176
     1
290
     0
176
     1
290
     0
176
     1
 90
       50
176
     1
 40
0.0
176
     1
 40
1.0
176
     1
 90
        0
176
     1
 62
    18
420
        0
176
     1
 90
       50
176
     1
 90
        3
176
     1
 62
     5
420
      255
176
     1
290
     0
176
     1
 90
       50
176
     1
 90
       50
176
     1
 90
       50
176
     1
290
     0
176
     1
 90
       50
176
     1
 62
   256
176
     0
 40
1.0
176
     0
 90
        2
176
     1
  1
strokes_ogs.tif
176
     1
290
     0
176
     1
 40
1.0
176
     1
 40
1.0
176
     1
  0
VISUALSTYLE
  5
42
102
{ACAD_REACTORS
330
2A
102
}
330
2A
100
AcDbVisualStyle
  2
Shaded
 70
    27
177
     3
291
     0
 70
    58
 90
        2
176
     1
 90
        2
176
     1
 90
        1
176
     1
 90
        2
176
     1
 40
0.6
176
     1
 40
30.0
176
     1
 62
     7
420
 16777215
176
     1
 90
        0
176
     1
 90
        4
176
     1
 62
     7
176
     1
 62
   257
176
     1
 90
        1
176
     1
 90
        1
176
     1
 40
1.0
176
     1
 90
        8
176
     1
 62
   257
176
     1
 40
1.0
176
     1
 90
        1
176
     1
 90
        6
176
     1
 90
        2
176
     1
 62
     8
420
  7895160
176
     1
 90
        3
176
     1
 90
        0
176
     1
 90
        0
176
     1
290
     0
176
     1
 90
        5
176
     1
 40
0.0
176
     1
 90
        0
176
     1
290
     0
176
     1
290
     1
176
     1
290
     1
176
     1
290
     0
176
     1
290
     0
176
     1
290
     0
176
     1
290
     0
176
     1
290
     0
176
     1
290
     0
176
     1
 90
       50
176
     1
 40
0.0
176
     1
 40
1.0
176
     1
 90
        0
176
     1
 62
    18
420
        0
176
     1
 90
       50
176
     1
 90
        3
176
     1
 62
     5
420
      255
176
     1
290
     0
176
     1
 90
       50
176
     1
 90
       50
176
     1
 90
       50
176
     1
290
     0
176
     1
 90
       50
176
     1
 62
   256
176
     0
 40
1.0
176
     0
 90
        2
176
     1
  1
strokes_ogs.tif
176
     1
290
     0
176
     1
 40
1.0
176
     1
 40
1.0
176
     1
  0
VISUALSTYLE
  5
41
102
{ACAD_REACTORS
330
2A
102
}
330
2A
100
AcDbVisualStyle
  2
Shaded with edges
 70
    26
177
     3
291
     0
 70
    58
 90
        2
176
     1
 90
        2
176
     1
 90
        1
176
     1
 90
        2
176
     1
 40
0.6
176
     1
 40
30.0
176
     1
 62
     7
420
 16777215
176
     1
 90
        1
176
     1
 90
       10
176
     1
 62
     7
176
     1
 62
   257
176
     1
 90
        2
176
     1
 90
        1
176
     1
 40
1.0
176
     1
 90
        8
176
     1
 62
   257
176
     1
 40
1.0
176
     1
 90
        1
176
     1
 90
        6
176
     1
 90
        2
176
     1
 62
     7
176
     1
 90
        3
176
     1
 90
        0
176
     1
 90
        0
176
     1
290
     0
176
     1
 90
        5
176
     1
 40
0.0
176
     1
 90
        0
176
     1
290
     0
176
     1
290
     1
176
     1
290
     1
176
     1
290
     0
176
     1
290
     0
176
     1
290
     0
176
     1
290
     0
176
     1
290
     0
176
     1
290
     0
176
     1
 90
       50
176
     1
 40
0.0
176
     1
 40
1.0
176
     1
 90
        0
176
     1
 62
    18
420
        0
176
     1
 90
       50
176
     1
 90
        3
176
     1
 62
     5
420
      255
176
     1
290
     0
176
     1
 90
       50
176
     1
 90
       50
176
     1
 90
       50
176
     1
290
     0
176
     1
 90
       50
176
     1
 62
   256
176
     0
 40
1.0
176
     0
 90
        2
176
     1
  1
strokes_ogs.tif
176
     1
290
     0
176
     1
 40
1.0
176
     1
 40
1.0
176
     1
  0
VISUALSTYLE
  5
3E
102
{ACAD_REACTORS
330
2A
102
}
330
2A
100
AcDbVisualStyle
  2
Shades of Gray
 70
    23
177
     3
291
     0
 70
    58
 90
        2
176
     1
 90
        2
176
     1
 90
        3
176
     1
 90
        0
176
     1
 40
0.6
176
     1
 40
30.0
176
     1
 62
     7
420
 16777215
176
     1
 90
        2
176
     1
 90
        2
176
     1
 62
     7
176
     1
 62
     7
176
     1
 90
        1
176
     1
 90
        1
176
     1
 40
40.0
176
     1
 90
        8
176
     1
 62
     7
176
     1
 40
1.0
176
     1
 90
        1
176
     1
 90
        6
176
     1
 90
        2
176
     1
 62
     7
176
     1
 90
        3
176
     1
 90
        0
176
     1
 90
        0
176
     1
290
     0
176
     1
 90
        1
176
     1
 40
0.0
176
     1
 90
        0
176
     1
290
     0
176
     1
290
     1
176
     1
290
     1
176
     1
290
     0
176
     1
290
     0
176
     1
290
     0
176
     1
290
     0
176
     1
290
     0
176
     1
290
     0
176
     1
 90
       50
176
     1
 40
0.0
176
     1
 40
1.0
176
     1
 90
        0
176
     1
 62
    18
420
        0
176
     1
 90
       50
176
     1
 90
        3
176
     1
 62
     5
420
      255
176
     1
290
     0
176
     1
 90
       50
176
     1
 90
       50
176
     1
 90
       50
176
     1
290
     0
176
     1
 90
       50
176
     1
 62
   256
176
     0
 40
1.0
176
     0
 90
        2
176
     1
  1
strokes_ogs.tif
176
     1
290
     0
176
     1
 40
1.0
176
     1
 40
1.0
176
     1
  0
VISUALSTYLE
  5
3F
102
{ACAD_REACTORS
330
2A
102
}
330
2A
100
AcDbVisualStyle
  2
Sketchy
 70
    24
177
     3
291
     0
 70
    58
 90
        1
176
     1
 90
        2
176
     1
 90
        2
176
     1
 90
        0
176
     1
 40
0.6
176
     1
 40
30.0
176
     1
 62
     7
420
 16777215
176
     1
 90
        2
176
     1
 90
        2
176
     1
 62
     7
176
     1
 62
     7
176
     1
 90
        1
176
     1
 90
        1
176
     1
 40
40.0
176
     1
 90
       11
176
     1
 62
     7
176
     1
 40
1.0
176
     1
 90
        1
176
     1
 90
        6
176
     1
 90
        2
176
     1
 62
     7
176
     1
 90
        6
176
     1
 90
        0
176
     1
 90
        0
176
     1
290
     0
176
     1
 90
        1
176
     1
 40
0.0
176
     1
 90
        0
176
     1
290
     0
176
     1
290
     1
176
     1
290
     1
176
     1
290
     0
176
     1
290
     0
176
     1
290
     0
176
     1
290
     0
176
     1
290
     0
176
     1
290
     0
176
     1
 90
       50
176
     1
 40
0.0
176
     1
 40
1.0
176
     1
 90
        0
176
     1
 62
    18
420
        0
176
     1
 90
       50
176
     1
 90
        3
176
     1
 62
     5
420
      255
176
     1
290
     0
176
     1
 90
       50
176
     1
 90
       50
176
     1
 90
       50
176
     1
290
     0
176
     1
 90
       50
176
     1
 62
   256
176
     0
 40
1.0
176
     0
 90
        2
176
     1
  1
strokes_ogs.tif
176
     1
290
     0
176
     1
 40
1.0
176
     1
 40
1.0
176
     1
  0
VISUALSTYLE
  5
37
102
{ACAD_REACTORS
330
2A
102
}
330
2A
100
AcDbVisualStyle
  2
Thicken
 70
    13
177
     3
291
     1
 70
    58
 90
        2
176
     1
 90
        2
176
     1
 90
        0
176
     1
 90
        0
176
     1
 40
0.6
176
     1
 40
30.0
176
     1
 62
     7
420
 16777215
176
     1
 90
        1
176
     1
 90
        4
176
     1
 62
     7
176
     1
 62
   257
176
     1
 90
        1
176
     1
 90
        1
176
     1
 40
1.0
176
     1
 90
       12
176
     1
 62
     7
176
     1
 40
1.0
176
     1
 90
        1
176
     1
 90
        6
176
     1
 90
        2
176
     1
 62
     7
176
     1
 90
        5
176
     1
 90
        0
176
     1
 90
        0
176
     1
290
     0
176
     1
 90
        1
176
     1
 40
0.0
176
     1
 90
        0
176
     1
290
     0
176
     1
290
     1
176
     1
290
     1
176
     1
290
     0
176
     1
290
     0
176
     1
290
     0
176
     1
290
     0
176
     1
290
     0
176
     1
290
     0
176
     1
 90
       50
176
     1
 40
0.0
176
     1
 40
1.0
176
     1
 90
        0
176
     1
 62
    18
420
        0
176
     1
 90
       50
176
     1
 90
        3
176
     1
 62
     5
420
      255
176
     1
290
     0
176
     1
 90
       50
176
     1
 90
       50
176
     1
 90
       50
176
     1
290
     0
176
     1
 90
       50
176
     1
 62
   256
176
     0
 40
1.0
176
     0
 90
        2
176
     1
  1
strokes_ogs.tif
176
     1
290
     0
176
     1
 40
1.0
176
     1
 40
1.0
176
     1
  0
VISUALSTYLE
  5
30
102
{ACAD_REACTORS
330
2A
102
}
330
2A
100
AcDbVisualStyle
  2
Wireframe
 70
     5
177
     3
291
     0
 70
    58
 90
        0
176
     1
 90
        2
176
     1
 90
        0
176
     1
 90
        0
176
     1
 40
0.6
176
     1
 40
30.0
176
     1
 62
     7
420
 16777215
176
     1
 90
        1
176
     1
 90
        4
176
     1
 62
     7
176
     1
 62
   257
176
     1
 90
        1
176
     1
 90
        1
176
     1
 40
1.0
176
     1
 90
        0
176
     1
 62
   257
176
     1
 40
1.0
176
     1
 90
        1
176
     1
 90
        6
176
     1
 90
        2
176
     1
 62
     7
176
     1
 90
        3
176
     1
 90
        0
176
     1
 90
        0
176
     1
290
     0
176
     1
 90
        1
176
     1
 40
0.0
176
     1
 90
        0
176
     1
290
     0
176
     1
290
     1
176
     1
290
     1
176
     1
290
     0
176
     1
290
     0
176
     1
290
     0
176
     1
290
     0
176
     1
290
     0
176
     1
290
     0
176
     1
 90
       50
176
     1
 40
0.0
176
     1
 40
1.0
176
     1
 90
        0
176
     1
 62
    18
420
        0
176
     1
 90
       50
176
     1
 90
        3
176
     1
 62
     5
420
      255
176
     1
290
     0
176
     1
 90
       50
176
     1
 90
       50
176
     1
 90
       50
176
     1
290
     0
176
     1
 90
       50
176
     1
 62
   256
176
     0
 40
1.0
176
     0
 90
        2
176
     1
  1
strokes_ogs.tif
176
     1
290
     0
176
     1
 40
1.0
176
     1
 40
1.0
176
     1
  0
VISUALSTYLE
  5
40
102
{ACAD_REACTORS
330
2A
102
}
330
2A
100
AcDbVisualStyle
  2
X-Ray
 70
    25
177
     3
291
     0
 70
    58
 90
        2
176
     1
 90
        2
176
     1
 90
        1
176
     1
 90
        1
176
     1
 40
0.5
176
     1
 40
30.0
176
     1
 62
     7
420
 16777215
176
     1
 90
        1
176
     1
 90
        0
176
     1
 62
     7
176
     1
 62
   257
176
     1
 90
        1
176
     1
 90
        1
176
     1
 40
1.0
176
     1
 90
        8
176
     1
 62
     7
176
     1
 40
1.0
176
     1
 90
        1
176
     1
 90
        6
176
     1
 90
        2
176
     1
 62
     7
176
     1
 90
        3
176
     1
 90
        0
176
     1
 90
        0
176
     1
290
     0
176
     1
 90
       13
176
     1
 40
0.0
176
     1
 90
        0
176
     1
290
     0
176
     1
290
     1
176
     1
290
     1
176
     1
290
     0
176
     1
290
     0
176
     1
290
     0
176
     1
290
     0
176
     1
290
     0
176
     1
290
     0
176
     1
 90
       50
176
     1
 40
0.0
176
     1
 40
1.0
176
     1
 90
        0
176
     1
 62
    18
420
        0
176
     1
 90
       50
176
     1
 90
        3
176
     1
 62
     5
420
      255
176
     1
290
     0
176
     1
 90
       50
176
     1
 90
       50
176
     1
 90
       50
176
     1
290
     0
176
     1
 90
       50
176
     1
 62
   256
176
     0
 40
1.0
176
     0
 90
        2
176
     1
  1
strokes_ogs.tif
176
     1
290
     0
176
     1
 40
1.0
176
     1
 40
1.0
176
     1
  0
DICTIONARYVAR
  5
350
102
{ACAD_REACTORS
330
34F
102
}
330
34F
100
DictionaryVariables
280
     0
  1
1:1
  0
DICTIONARYVAR
  5
355
102
{ACAD_REACTORS
330
34F
102
}
330
34F
100
DictionaryVariables
280
     0
  1
Standard
  0
DICTIONARYVAR
  5
354
102
{ACAD_REACTORS
330
34F
102
}
330
34F
100
DictionaryVariables
280
     0
  1
Standard
  0
DICTIONARY
  5
351
330
6A
100
AcDbDictionary
280
     1
281
     1
  3
ACAD_ROUNDTRIP_2008_TABLESTYLE_CELLSTYLEMAP
360
352
  0
CELLSTYLEMAP
  5
352
102
{ACAD_REACTORS
330
351
102
}
330
351
100
AcDbCellStyleMap
 90
        3
300
CELLSTYLE
  1
TABLEFORMAT_BEGIN
 90
        5
170
     1
 91
        0
 92
    32768
 62
   257
 93
        1
300
CONTENTFORMAT
  1
CONTENTFORMAT_BEGIN
 90
        0
 91
        0
 92
        4
 93
        0
300

 40
0.0
140
1.0
 94
        5
 62
     0
340
11
144
0.25
309
CONTENTFORMAT_END
171
     1
301
MARGIN
  1
CELLMARGIN_BEGIN
 40
0.06
 40
0.06
 40
0.06
 40
0.06
 40
0.06
 40
0.06
309
CELLMARGIN_END
 94
        6
 95
        1
302
GRIDFORMAT
  1
GRIDFORMAT_BEGIN
 90
        0
 91
        1
 62
     0
 92
       -2
340
14
 93
        0
 40
0.045
309
GRIDFORMAT_END
 95
        2
302
GRIDFORMAT
  1
GRIDFORMAT_BEGIN
 90
        0
 91
        1
 62
     0
 92
       -2
340
14
 93
        0
 40
0.045
309
GRIDFORMAT_END
 95
        4
302
GRIDFORMAT
  1
GRIDFORMAT_BEGIN
 90
        0
 91
        1
 62
     0
 92
       -2
340
14
 93
        0
 40
0.045
309
GRIDFORMAT_END
 95
        8
302
GRIDFORMAT
  1
GRIDFORMAT_BEGIN
 90
        0
 91
        1
 62
     0
 92
       -2
340
14
 93
        0
 40
0.045
309
GRIDFORMAT_END
 95
       16
302
GRIDFORMAT
  1
GRIDFORMAT_BEGIN
 90
        0
 91
        1
 62
     0
 92
       -2
340
14
 93
        0
 40
0.045
309
GRIDFORMAT_END
 95
       32
302
GRIDFORMAT
  1
GRIDFORMAT_BEGIN
 90
        0
 91
        1
 62
     0
 92
       -2
340
14
 93
        0
 40
0.045
309
GRIDFORMAT_END
309
TABLEFORMAT_END
  1
CELLSTYLE_BEGIN
 90
        1
 91
        1
300
_TITLE
309
CELLSTYLE_END
300
CELLSTYLE
  1
TABLEFORMAT_BEGIN
 90
        5
170
     1
 91
        0
 92
        0
 62
   257
 93
        1
300
CONTENTFORMAT
  1
CONTENTFORMAT_BEGIN
 90
        0
 91
        0
 92
        4
 93
        0
300

 40
0.0
140
1.0
 94
        5
 62
     0
340
11
144
0.18
309
CONTENTFORMAT_END
171
     1
301
MARGIN
  1
CELLMARGIN_BEGIN
 40
0.06
 40
0.06
 40
0.06
 40
0.06
 40
0.06
 40
0.06
309
CELLMARGIN_END
 94
        6
 95
        1
302
GRIDFORMAT
  1
GRIDFORMAT_BEGIN
 90
        0
 91
        1
 62
     0
 92
       -2
340
14
 93
        0
 40
0.045
309
GRIDFORMAT_END
 95
        2
302
GRIDFORMAT
  1
GRIDFORMAT_BEGIN
 90
        0
 91
        1
 62
     0
 92
       -2
340
14
 93
        0
 40
0.045
309
GRIDFORMAT_END
 95
        4
302
GRIDFORMAT
  1
GRIDFORMAT_BEGIN
 90
        0
 91
        1
 62
     0
 92
       -2
340
14
 93
        0
 40
0.045
309
GRIDFORMAT_END
 95
        8
302
GRIDFORMAT
  1
GRIDFORMAT_BEGIN
 90
        0
 91
        1
 62
     0
 92
       -2
340
14
 93
        0
 40
0.045
309
GRIDFORMAT_END
 95
       16
302
GRIDFORMAT
  1
GRIDFORMAT_BEGIN
 90
        0
 91
        1
 62
     0
 92
       -2
340
14
 93
        0
 40
0.045
309
GRIDFORMAT_END
 95
       32
302
GRIDFORMAT
  1
GRIDFORMAT_BEGIN
 90
        0
 91
        1
 62
     0
 92
       -2
340
14
 93
        0
 40
0.045
309
GRIDFORMAT_END
309
TABLEFORMAT_END
  1
CELLSTYLE_BEGIN
 90
        2
 91
        1
300
_HEADER
309
CELLSTYLE_END
300
CELLSTYLE
  1
TABLEFORMAT_BEGIN
 90
        5
170
     1
 91
        0
 92
        0
 62
   257
 93
        1
300
CONTENTFORMAT
  1
CONTENTFORMAT_BEGIN
 90
        0
 91
        0
 92
        4
 93
        0
300

 40
0.0
140
1.0
 94
        2
 62
     0
340
11
144
0.18
309
CONTENTFORMAT_END
171
     1
301
MARGIN
  1
CELLMARGIN_BEGIN
 40
0.06
 40
0.06
 40
0.06
 40
0.06
 40
0.06
 40
0.06
309
CELLMARGIN_END
 94
        6
 95
        1
302
GRIDFORMAT
  1
GRIDFORMAT_BEGIN
 90
        0
 91
        1
 62
     0
 92
       -2
340
14
 93
        0
 40
0.045
309
GRIDFORMAT_END
 95
        2
302
GRIDFORMAT
  1
GRIDFORMAT_BEGIN
 90
        0
 91
        1
 62
     0
 92
       -2
340
14
 93
        0
 40
0.045
309
GRIDFORMAT_END
 95
        4
302
GRIDFORMAT
  1
GRIDFORMAT_BEGIN
 90
        0
 91
        1
 62
     0
 92
       -2
340
14
 93
        0
 40
0.045
309
GRIDFORMAT_END
 95
        8
302
GRIDFORMAT
  1
GRIDFORMAT_BEGIN
 90
        0
 91
        1
 62
     0
 92
       -2
340
14
 93
        0
 40
0.045
309
GRIDFORMAT_END
 95
       16
302
GRIDFORMAT
  1
GRIDFORMAT_BEGIN
 90
        0
 91
        1
 62
     0
 92
       -2
340
14
 93
        0
 40
0.045
309
GRIDFORMAT_END
 95
       32
302
GRIDFORMAT
  1
GRIDFORMAT_BEGIN
 90
        0
 91
        1
 62
     0
 92
       -2
340
14
 93
        0
 40
0.045
309
GRIDFORMAT_END
309
TABLEFORMAT_END
  1
CELLSTYLE_BEGIN
 90
        3
 91
        2
300
_DATA
309
CELLSTYLE_END
  0
ENDSEC
  0
EOF
