  0
SECTION
  2
HEADER
  9
$ACADVER
  1
AC1032
  9
$ACADMAINTVER
 90
       55
  9
$DWGCODEPAGE
  3
ANSI_932
  9
$LASTSAVEDBY
  1
client05
  9
$REQUIREDVERSIONS
160
                 0
  9
$INSBASE
 10
0.0
 20
0.0
 30
0.0
  9
$EXTMIN
 10
-37.06975307182884
 20
-202.254545
 30
0.0
  9
$EXTMAX
 10
237.9302469281712
 20
363.4030303939394
 30
0.0
  9
$LIMMIN
 10
0.0
 20
0.0
  9
$LIMMAX
 10
297.0
 20
210.0
  9
$ORTHOMODE
 70
     0
  9
$REGENMODE
 70
     1
  9
$FILLMODE
 70
     1
  9
$QTEXTMODE
 70
     0
  9
$MIRRTEXT
 70
     1
  9
$LTSCALE
 40
0.25
  9
$ATTMODE
 70
     1
  9
$TEXTSIZE
 40
5.0
  9
$TRACEWID
 40
0.05
  9
$TEXTSTYLE
  7
Standard
  9
$CLAYER
  8
0
  9
$CELTYPE
  6
ByLayer
  9
$CECOLOR
 62
   256
  9
$CELTSCALE
 40
1.0
  9
$DISPSILH
 70
     0
  9
$DIMSCALE
 40
1.0
  9
$DIMASZ
 40
4.0
  9
$DIMEXO
 40
2.0
  9
$DIMDLI
 40
10.0
  9
$DIMRND
 40
0.0
  9
$DIMDLE
 40
0.0
  9
$DIMEXE
 40
2.0
  9
$DIMTP
 40
0.0
  9
$DIMTM
 40
0.0
  9
$DIMTXT
 40
3.5
  9
$DIMCEN
 40
0.09
  9
$DIMTSZ
 40
0.0
  9
$DIMTOL
 70
     0
  9
$DIMLIM
 70
     0
  9
$DIMTIH
 70
     0
  9
$DIMTOH
 70
     0
  9
$DIMSE1
 70
     0
  9
$DIMSE2
 70
     0
  9
$DIMTAD
 70
     3
  9
$DIMZIN
 70
     8
  9
$DIMBLK
  1

  9
$DIMASO
 70
     1
  9
$DIMSHO
 70
     1
  9
$DIMPOST
  1

  9
$DIMAPOST
  1

  9
$DIMALT
 70
     0
  9
$DIMALTD
 70
     2
  9
$DIMALTF
 40
25.4
  9
$DIMLFAC
 40
1.0
  9
$DIMTOFL
 70
     1
  9
$DIMTVP
 40
0.7
  9
$DIMTIX
 70
     0
  9
$DIMSOXD
 70
     0
  9
$DIMSAH
 70
     0
  9
$DIMBLK1
  1

  9
$DIMBLK2
  1

  9
$DIMSTYLE
  2
Standard
  9
$DIMCLRD
 70
     0
  9
$DIMCLRE
 70
     0
  9
$DIMCLRT
 70
     0
  9
$DIMTFAC
 40
0.5
  9
$DIMGAP
 40
0.09
  9
$DIMJUST
 70
     0
  9
$DIMSD1
 70
     0
  9
$DIMSD2
 70
     0
  9
$DIMTOLJ
 70
     1
  9
$DIMTZIN
 70
     8
  9
$DIMALTZ
 70
     0
  9
$DIMALTTZ
 70
     0
  9
$DIMUPT
 70
     1
  9
$DIMDEC
 70
     2
  9
$DIMTDEC
 70
     4
  9
$DIMALTU
 70
     2
  9
$DIMALTTD
 70
     2
  9
$DIMTXSTY
  7
Standard
  9
$DIMAUNIT
 70
     0
  9
$DIMADEC
 70
     0
  9
$DIMALTRND
 40
0.0
  9
$DIMAZIN
 70
     0
  9
$DIMDSEP
 70
    46
  9
$DIMATFIT
 70
     2
  9
$DIMFRAC
 70
     0
  9
$DIMLDRBLK
  1

  9
$DIMLUNIT
 70
     2
  9
$DIMLWD
 70
    -2
  9
$DIMLWE
 70
    -2
  9
$DIMTMOVE
 70
     2
  9
$DIMFXL
 40
1.0
  9
$DIMFXLON
 70
     0
  9
$DIMJOGANG
 40
0.7853981633974483
  9
$DIMTFILL
 70
     0
  9
$DIMTFILLCLR
 70
     0
  9
$DIMARCSYM
 70
     0
  9
$DIMLTYPE
  6

  9
$DIMLTEX1
  6

  9
$DIMLTEX2
  6

  9
$DIMTXTDIRECTION
 70
     0
  9
$LUNITS
 70
     2
  9
$LUPREC
 70
     4
  9
$SKETCHINC
 40
0.1
  9
$FILLETRAD
 40
0.5
  9
$AUNITS
 70
     0
  9
$AUPREC
 70
     0
  9
$MENU
  1
.
  9
$ELEVATION
 40
0.0
  9
$PELEVATION
 40
0.0
  9
$THICKNESS
 40
0.0
  9
$LIMCHECK
 70
     0
  9
$CHAMFERA
 40
0.0
  9
$CHAMFERB
 40
0.0
  9
$CHAMFERC
 40
0.0
  9
$CHAMFERD
 40
0.0
  9
$SKPOLY
 70
     0
  9
$TDCREATE
 40
2459374.891261574
  9
$TDUCREATE
 40
2459374.516261574
  9
$TDUPDATE
 40
2459374.516268252
  9
$TDUUPDATE
 40
2459374.141268252
  9
$TDINDWG
 40
0.0000000116
  9
$TDUSRTIMER
 40
0.0000000116
  9
$USRTIMER
 70
     1
  9
$ANGBASE
 50
0.0
  9
$ANGDIR
 70
     0
  9
$PDMODE
 70
     0
  9
$PDSIZE
 40
0.0
  9
$PLINEWID
 40
0.0
  9
$SPLFRAME
 70
     0
  9
$SPLINETYPE
 70
     6
  9
$SPLINESEGS
 70
     8
  9
$HANDSEED
  5
638
  9
$SURFTAB1
 70
     6
  9
$SURFTAB2
 70
     6
  9
$SURFTYPE
 70
     6
  9
$SURFU
 70
     6
  9
$SURFV
 70
     6
  9
$UCSBASE
  2

  9
$UCSNAME
  2

  9
$UCSORG
 10
0.0
 20
0.0
 30
0.0
  9
$UCSXDIR
 10
1.0
 20
0.0
 30
0.0
  9
$UCSYDIR
 10
0.0
 20
1.0
 30
0.0
  9
$UCSORTHOREF
  2

  9
$UCSORTHOVIEW
 70
     0
  9
$UCSORGTOP
 10
0.0
 20
0.0
 30
0.0
  9
$UCSORGBOTTOM
 10
0.0
 20
0.0
 30
0.0
  9
$UCSORGLEFT
 10
0.0
 20
0.0
 30
0.0
  9
$UCSORGRIGHT
 10
0.0
 20
0.0
 30
0.0
  9
$UCSORGFRONT
 10
0.0
 20
0.0
 30
0.0
  9
$UCSORGBACK
 10
0.0
 20
0.0
 30
0.0
  9
$PUCSBASE
  2

  9
$PUCSNAME
  2

  9
$PUCSORG
 10
0.0
 20
0.0
 30
0.0
  9
$PUCSXDIR
 10
1.0
 20
0.0
 30
0.0
  9
$PUCSYDIR
 10
0.0
 20
1.0
 30
0.0
  9
$PUCSORTHOREF
  2

  9
$PUCSORTHOVIEW
 70
     0
  9
$PUCSORGTOP
 10
0.0
 20
0.0
 30
0.0
  9
$PUCSORGBOTTOM
 10
0.0
 20
0.0
 30
0.0
  9
$PUCSORGLEFT
 10
0.0
 20
0.0
 30
0.0
  9
$PUCSORGRIGHT
 10
0.0
 20
0.0
 30
0.0
  9
$PUCSORGFRONT
 10
0.0
 20
0.0
 30
0.0
  9
$PUCSORGBACK
 10
0.0
 20
0.0
 30
0.0
  9
$USERI1
 70
     0
  9
$USERI2
 70
     0
  9
$USERI3
 70
     0
  9
$USERI4
 70
     0
  9
$USERI5
 70
     0
  9
$USERR1
 40
0.0
  9
$USERR2
 40
0.0
  9
$USERR3
 40
0.0
  9
$USERR4
 40
0.0
  9
$USERR5
 40
0.0
  9
$WORLDVIEW
 70
     1
  9
$SHADEDGE
 70
     3
  9
$SHADEDIF
 70
    70
  9
$TILEMODE
 70
     1
  9
$MAXACTVP
 70
    64
  9
$PINSBASE
 10
0.0
 20
0.0
 30
0.0
  9
$PLIMCHECK
 70
     0
  9
$PEXTMIN
 10
0.0
 20
0.0
 30
0.0
  9
$PEXTMAX
 10
297.0
 20
210.0
 30
0.0
  9
$PLIMMIN
 10
0.0
 20
0.0
  9
$PLIMMAX
 10
297.0
 20
210.0
  9
$UNITMODE
 70
     0
  9
$VISRETAIN
 70
     1
  9
$PLINEGEN
 70
     0
  9
$PSLTSCALE
 70
     1
  9
$TREEDEPTH
 70
  3020
  9
$CMLSTYLE
  2
Standard
  9
$CMLJUST
 70
     0
  9
$CMLSCALE
 40
1.0
  9
$PROXYGRAPHICS
 70
     1
  9
$MEASUREMENT
 70
     1
  9
$CELWEIGHT
370
    -1
  9
$ENDCAPS
280
     0
  9
$JOINSTYLE
280
     0
  9
$LWDISPLAY
290
     0
  9
$INSUNITS
 70
     4
  9
$HYPERLINKBASE
  1

  9
$STYLESHEET
  1

  9
$XEDIT
290
     1
  9
$CEPSNTYPE
380
     0
  9
$PSTYLEMODE
290
     1
  9
$FINGERPRINTGUID
  2
{5f427174-2af5-42d2-a456-867b400ab210}
  9
$VERSIONGUID
  2
{FAEB1C32-E019-11D5-929B-00C0DF256EC4}
  9
$EXTNAMES
290
     1
  9
$PSVPSCALE
 40
0.0
  9
$OLESTARTUP
290
     0
  9
$SORTENTS
280
   127
  9
$INDEXCTL
280
     0
  9
$HIDETEXT
280
     1
  9
$XCLIPFRAME
280
     2
  9
$HALOGAP
280
     0
  9
$OBSCOLOR
 70
   257
  9
$OBSLTYPE
280
     0
  9
$INTERSECTIONDISPLAY
280
     0
  9
$INTERSECTIONCOLOR
 70
   257
  9
$DIMASSOC
280
     1
  9
$PROJECTNAME
  1

  9
$CAMERADISPLAY
290
     0
  9
$LENSLENGTH
 40
50.0
  9
$CAMERAHEIGHT
 40
0.0
  9
$STEPSPERSEC
 40
2.0
  9
$STEPSIZE
 40
6.0
  9
$3DDWFPREC
 40
2.0
  9
$PSOLWIDTH
 40
0.25
  9
$PSOLHEIGHT
 40
4.0
  9
$LOFTANG1
 40
1.570796326794897
  9
$LOFTANG2
 40
1.570796326794897
  9
$LOFTMAG1
 40
0.0
  9
$LOFTMAG2
 40
0.0
  9
$LOFTPARAM
 70
     7
  9
$LOFTNORMALS
280
     1
  9
$LATITUDE
 40
37.795
  9
$LONGITUDE
 40
-122.394
  9
$NORTHDIRECTION
 40
0.0
  9
$TIMEZONE
 70
 -8000
  9
$LIGHTGLYPHDISPLAY
280
     1
  9
$TILEMODELIGHTSYNCH
280
     1
  9
$CMATERIAL
347
44
  9
$SOLIDHIST
280
     0
  9
$SHOWHIST
280
     1
  9
$DWFFRAME
280
     2
  9
$DGNFRAME
280
     2
  9
$REALWORLDSCALE
290
     1
  9
$INTERFERECOLOR
 62
   256
  9
$CSHADOW
280
     0
  9
$SHADOWPLANELOCATION
 40
0.0
  0
ENDSEC
  0
SECTION
  2
CLASSES
  0
CLASS
  1
ACDBDICTIONARYWDFLT
  2
AcDbDictionaryWithDefault
  3
ObjectDBX Classes
 90
        0
 91
        3
280
     0
281
     0
  0
CLASS
  1
VISUALSTYLE
  2
AcDbVisualStyle
  3
ObjectDBX Classes
 90
     4095
 91
        3
280
     0
281
     0
  0
CLASS
  1
MATERIAL
  2
AcDbMaterial
  3
ObjectDBX Classes
 90
     1153
 91
        3
280
     0
281
     0
  0
CLASS
  1
SCALE
  2
AcDbScale
  3
ObjectDBX Classes
 90
     1153
 91
        3
280
     0
281
     0
  0
CLASS
  1
TABLESTYLE
  2
AcDbTableStyle
  3
ObjectDBX Classes
 90
     4095
 91
        3
280
     0
281
     0
  0
CLASS
  1
MLEADERSTYLE
  2
AcDbMLeaderStyle
  3
ACDB_MLEADERSTYLE_CLASS
 90
     4095
 91
        3
280
     0
281
     0
  0
CLASS
  1
SUN
  2
AcDbSun
  3
SCENEOE
 90
     1153
 91
        3
280
     0
281
     0
  0
CLASS
  1
DICTIONARYVAR
  2
AcDbDictionaryVar
  3
ObjectDBX Classes
 90
        0
 91
        3
280
     0
281
     0
  0
CLASS
  1
CELLSTYLEMAP
  2
AcDbCellStyleMap
  3
ObjectDBX Classes
 90
     1152
 91
        3
280
     0
281
     0
  0
ENDSEC
  0
SECTION
  2
TABLES
  0
TABLE
  2
VPORT
  5
8
330
0
100
AcDbSymbolTable
 70
     1
  0
VPORT
  5
29
330
8
100
AcDbSymbolTableRecord
100
AcDbViewportTableRecord
  2
*Active
 70
     0
 10
0.0
 20
0.0
 11
1.0
 21
1.0
 12
10.42990654205607
 22
4.5
 13
0.0
 23
0.0
 14
0.5
 24
0.5
 15
0.5
 25
0.5
 16
0.0
 26
0.0
 36
1.0
 17
0.0
 27
0.0
 37
0.0
 40
9.0
 41
1.972972972850329
 42
50.0
 43
0.0
 44
0.0
 50
0.0
 51
0.0
 71
     0
 72
   100
 73
     1
 74
     3
 75
     0
 76
     0
 77
     0
 78
     0
281
     0
 65
     1
110
0.0
120
0.0
130
0.0
111
1.0
121
0.0
131
0.0
112
0.0
122
1.0
132
0.0
 79
     0
146
0.0
348
2F
 60
     3
 61
     5
292
     1
282
     1
141
0.0
142
0.0
 63
   250
361
6D
  0
ENDTAB
  0
TABLE
  2
LTYPE
  5
5
330
0
100
AcDbSymbolTable
 70
     9
  0
LTYPE
  5
14
330
5
100
AcDbSymbolTableRecord
100
AcDbLinetypeTableRecord
  2
ByBlock
 70
     0
  3

 72
    65
 73
     0
 40
0.0
  0
LTYPE
  5
15
330
5
100
AcDbSymbolTableRecord
100
AcDbLinetypeTableRecord
  2
ByLayer
 70
     0
  3

 72
    65
 73
     0
 40
0.0
  0
LTYPE
  5
16
330
5
100
AcDbSymbolTableRecord
100
AcDbLinetypeTableRecord
  2
Continuous
 70
     0
  3
Solid line
 72
    65
 73
     0
 40
0.0
  0
LTYPE
  5
BC
330
5
100
AcDbSymbolTableRecord
100
AcDbLinetypeTableRecord
  2
DOT
 70
     0
  3
DOT
 72
    65
 73
     2
 40
4.0
 49
6.0
 74
     0
 49
-2.0
 74
     0
  0
LTYPE
  5
BD
330
5
100
AcDbSymbolTableRecord
100
AcDbLinetypeTableRecord
  2
HIDDEN
 70
     0
  3
HIDDEN
 72
    65
 73
     2
 40
4.2
 49
8.4
 74
     0
 49
-4.2
 74
     0
  0
LTYPE
  5
BE
330
5
100
AcDbSymbolTableRecord
100
AcDbLinetypeTableRecord
  2
DASHDOT
 70
     0
  3
DASHDOT
 72
    65
 73
     4
 40
14.5
 49
30.0
 74
     0
 49
-9.0
 74
     0
 49
2.5
 74
     0
 49
-9.0
 74
     0
  0
LTYPE
  5
BF
330
5
100
AcDbSymbolTableRecord
100
AcDbLinetypeTableRecord
  2
PHANTOM
 70
     0
  3
PHANTOM
 72
    65
 73
     6
 40
12.0
 49
30.0
 74
     0
 49
-9.0
 74
     0
 49
2.5
 74
     0
 49
-5.0
 74
     0
 49
2.5
 74
     0
 49
-9.0
 74
     0
  0
LTYPE
  5
C0
330
5
100
AcDbSymbolTableRecord
100
AcDbLinetypeTableRecord
  2
ACAD_ISO14W100
 70
     0
  3
ACAD_ISO14W100
 72
    65
 73
     8
 40
1.5
 49
12.0
 74
     0
 49
-3.0
 74
     0
 49
0.5
 74
     0
 49
-3.0
 74
     0
 49
0.5
 74
     0
 49
-3.0
 74
     0
 49
0.5
 74
     0
 49
-3.0
 74
     0
  0
LTYPE
  5
C1
330
5
100
AcDbSymbolTableRecord
100
AcDbLinetypeTableRecord
  2
ACAD_ISO06W100
 70
     0
  3
ACAD_ISO06W100
 72
    65
 73
     8
 40
13.5
 49
24.0
 74
     0
 49
-3.0
 74
     0
 49
0.5
 74
     0
 49
-3.0
 74
     0
 49
0.5
 74
     0
 49
-3.0
 74
     0
 49
0.5
 74
     0
 49
-3.0
 74
     0
  0
LTYPE
  5
C2
330
5
100
AcDbSymbolTableRecord
100
AcDbLinetypeTableRecord
  2
ACAD_ISO11W100
 70
     0
  3
ACAD_ISO11W100
 72
    65
 73
     6
 40
15.5
 49
12.0
 74
     0
 49
-3.0
 74
     0
 49
12.0
 74
     0
 49
-3.0
 74
     0
 49
0.5
 74
     0
 49
-3.0
 74
     0
  0
LTYPE
  5
C3
330
5
100
AcDbSymbolTableRecord
100
AcDbLinetypeTableRecord
  2
ACAD_ISO13W100
 70
     0
  3
ACAD_ISO13W100
 72
    65
 73
     8
 40
13.0
 49
12.0
 74
     0
 49
-3.0
 74
     0
 49
12.0
 74
     0
 49
-3.0
 74
     0
 49
0.5
 74
     0
 49
-3.0
 74
     0
 49
0.5
 74
     0
 49
-3.0
 74
     0
  0
ENDTAB
  0
TABLE
  2
LAYER
  5
2
330
0
100
AcDbSymbolTable
 70
    30
  0
LAYER
  5
10
330
2
100
AcDbSymbolTableRecord
100
AcDbLayerTableRecord
  2
0
 70
     0
 62
     7
  6
Continuous
370
    -3
390
F
347
46
348
0
  0
LAYER
  5
C4
330
2
100
AcDbSymbolTableRecord
100
AcDbLayerTableRecord
  2
1
 70
     0
 62
     7
  6
Continuous
370
     9
390
F
347
46
348
0
  0
LAYER
  5
C5
330
2
100
AcDbSymbolTableRecord
100
AcDbLayerTableRecord
  2
2
 70
     0
 62
   136
420
    31611
  6
Continuous
370
     9
390
F
347
46
348
0
  0
LAYER
  5
C6
330
2
100
AcDbSymbolTableRecord
100
AcDbLayerTableRecord
  2
3
 70
     0
 62
   216
420
  8061051
  6
Continuous
370
     9
390
F
347
46
348
0
  0
LAYER
  5
C7
330
2
100
AcDbSymbolTableRecord
100
AcDbLayerTableRecord
  2
4
 70
     0
 62
    56
420
  8092416
  6
Continuous
370
     9
390
F
347
46
348
0
  0
LAYER
  5
C8
330
2
100
AcDbSymbolTableRecord
100
AcDbLayerTableRecord
  2
5
 70
     0
 62
    96
420
    31488
  6
Continuous
370
     9
390
F
347
46
348
0
  0
LAYER
  5
C9
330
2
100
AcDbSymbolTableRecord
100
AcDbLayerTableRecord
  2
6
 70
     0
 62
    16
420
  8060928
  6
Continuous
370
     9
390
F
347
46
348
0
  0
LAYER
  5
CA
330
2
100
AcDbSymbolTableRecord
100
AcDbLayerTableRecord
  2
7
 70
     0
 62
     4
  6
Continuous
370
     9
390
F
347
46
348
0
  0
LAYER
  5
CB
330
2
100
AcDbSymbolTableRecord
100
AcDbLayerTableRecord
  2
8
 70
     0
 62
     6
  6
Continuous
370
     9
390
F
347
46
348
0
  0
LAYER
  5
CC
330
2
100
AcDbSymbolTableRecord
100
AcDbLayerTableRecord
  2
9
 70
     0
 62
     2
  6
Continuous
370
     9
390
F
347
46
348
0
  0
LAYER
  5
CD
330
2
100
AcDbSymbolTableRecord
100
AcDbLayerTableRecord
  2
10
 70
     0
 62
     3
  6
Continuous
370
     9
390
F
347
46
348
0
  0
LAYER
  5
CE
330
2
100
AcDbSymbolTableRecord
100
AcDbLayerTableRecord
  2
11
 70
     0
 62
     8
420
  7566195
  6
Continuous
370
     9
390
F
347
46
348
0
  0
LAYER
  5
CF
330
2
100
AcDbSymbolTableRecord
100
AcDbLayerTableRecord
  2
12
 70
     0
 62
   138
420
    19018
  6
Continuous
370
     9
390
F
347
46
348
0
  0
LAYER
  5
D0
330
2
100
AcDbSymbolTableRecord
100
AcDbLayerTableRecord
  2
13
 70
     0
 62
   218
420
  4849738
  6
Continuous
370
     9
390
F
347
46
348
0
  0
LAYER
  5
D1
330
2
100
AcDbSymbolTableRecord
100
AcDbLayerTableRecord
  2
14
 70
     0
 62
    58
420
  4868608
  6
Continuous
370
     9
390
F
347
46
348
0
  0
LAYER
  5
D2
330
2
100
AcDbSymbolTableRecord
100
AcDbLayerTableRecord
  2
15
 70
     0
 62
    98
420
    18944
  6
Continuous
370
     9
390
F
347
46
348
0
  0
LAYER
  5
D3
330
2
100
AcDbSymbolTableRecord
100
AcDbLayerTableRecord
  2
16
 70
     0
 62
    18
420
  4849664
  6
Continuous
370
     9
390
F
347
46
348
0
  0
LAYER
  5
D4
330
2
100
AcDbSymbolTableRecord
100
AcDbLayerTableRecord
  2
17
 70
     0
 62
   134
420
    42148
  6
Continuous
370
     9
390
F
347
46
348
0
  0
LAYER
  5
D5
330
2
100
AcDbSymbolTableRecord
100
AcDbLayerTableRecord
  2
18
 70
     0
 62
   214
420
 10748068
  6
Continuous
370
     9
390
F
347
46
348
0
  0
LAYER
  5
D6
330
2
100
AcDbSymbolTableRecord
100
AcDbLayerTableRecord
  2
19
 70
     0
 62
    54
420
 10789888
  6
Continuous
370
     9
390
F
347
46
348
0
  0
LAYER
  5
D7
330
2
100
AcDbSymbolTableRecord
100
AcDbLayerTableRecord
  2
20
 70
     0
 62
     1
  6
Continuous
370
     9
390
F
347
46
348
0
  0
LAYER
  5
D8
330
2
100
AcDbSymbolTableRecord
100
AcDbLayerTableRecord
  2
100
 70
     0
 62
     7
  6
Continuous
370
     9
390
F
347
46
348
0
  0
LAYER
  5
D9
330
2
100
AcDbSymbolTableRecord
100
AcDbLayerTableRecord
  2
101
 70
     0
 62
     7
  6
Continuous
370
     9
390
F
347
46
348
0
  0
LAYER
  5
DA
330
2
100
AcDbSymbolTableRecord
100
AcDbLayerTableRecord
  2
102
 70
     0
 62
     7
  6
Continuous
370
     9
390
F
347
46
348
0
  0
LAYER
  5
DB
330
2
100
AcDbSymbolTableRecord
100
AcDbLayerTableRecord
  2
103
 70
     0
 62
     9
420
 12434877
  6
Continuous
370
     9
390
F
347
46
348
0
  0
LAYER
  5
DC
330
2
100
AcDbSymbolTableRecord
100
AcDbLayerTableRecord
  2
104
 70
     0
 62
   253
420
 10263708
  6
Continuous
370
     9
390
F
347
46
348
0
  0
LAYER
  5
DD
330
2
100
AcDbSymbolTableRecord
100
AcDbLayerTableRecord
  2
105
 70
     0
 62
     8
420
  7566195
  6
Continuous
370
     9
390
F
347
46
348
0
  0
LAYER
  5
DE
330
2
100
AcDbSymbolTableRecord
100
AcDbLayerTableRecord
  2
106
 70
     0
 62
     8
420
  7566195
  6
Continuous
370
     9
390
F
347
46
348
0
  0
LAYER
  5
DF
330
2
100
AcDbSymbolTableRecord
100
AcDbLayerTableRecord
  2
107
 70
     0
 62
     1
  6
Continuous
370
     9
390
F
347
46
348
0
  0
LAYER
  5
E0
330
2
100
AcDbSymbolTableRecord
100
AcDbLayerTableRecord
  2
128
 70
     0
 62
     7
  6
Continuous
370
     9
390
F
347
46
348
0
  0
ENDTAB
  0
TABLE
  2
STYLE
  5
3
330
0
100
AcDbSymbolTable
 70
     2
  0
STYLE
  5
11
330
3
100
AcDbSymbolTableRecord
100
AcDbTextStyleTableRecord
  2
Standard
 70
     0
 40
0.0
 41
1.0
 50
0.0
 71
     0
 42
5.0
  3
txt
  4
bigfont
  0
STYLE
  5
6F
330
3
100
AcDbSymbolTableRecord
100
AcDbTextStyleTableRecord
  2
T_STANDARD
 70
     4
 40
10.0
 41
1.0
 50
0.0
 71
     0
 42
5.0
  3
txt
  4
bigfont
1001
ACAD
1000

1071
      256
  0
ENDTAB
  0
TABLE
  2
VIEW
  5
6
330
0
100
AcDbSymbolTable
 70
     0
  0
ENDTAB
  0
TABLE
  2
UCS
  5
7
330
0
100
AcDbSymbolTable
 70
     0
  0
ENDTAB
  0
TABLE
  2
APPID
  5
9
330
0
100
AcDbSymbolTable
 70
     2
  0
APPID
  5
12
330
9
100
AcDbSymbolTableRecord
100
AcDbRegAppTableRecord
  2
ACAD
 70
     0
  0
APPID
  5
6E
330
9
100
AcDbSymbolTableRecord
100
AcDbRegAppTableRecord
  2
ODA
 70
     0
  0
ENDTAB
  0
TABLE
  2
DIMSTYLE
  5
A
330
0
100
AcDbSymbolTable
 70
     1
100
AcDbDimStyleTable
  0
DIMSTYLE
105
27
330
A
100
AcDbSymbolTableRecord
100
AcDbDimStyleTableRecord
  2
Standard
 70
     0
178
     0
340
11
  0
ENDTAB
  0
TABLE
  2
BLOCK_RECORD
  5
1
330
0
100
AcDbSymbolTable
 70
    58
  0
BLOCK_RECORD
  5
1F
330
1
100
AcDbSymbolTableRecord
100
AcDbBlockTableRecord
  2
*Model_Space
340
22
 70
     0
280
     1
281
     0
  0
BLOCK_RECORD
  5
1B
330
1
100
AcDbSymbolTableRecord
100
AcDbBlockTableRecord
  2
*Paper_Space
340
1E
 70
     0
280
     1
281
     0
  0
BLOCK_RECORD
  5
23
330
1
100
AcDbSymbolTableRecord
100
AcDbBlockTableRecord
  2
*Paper_Space0
340
26
 70
     0
280
     1
281
     0
  0
BLOCK_RECORD
  5
70
330
1
100
AcDbSymbolTableRecord
100
AcDbBlockTableRecord
  2
_ORIGIN
340
0
 70
     0
280
     1
281
     0
  0
BLOCK_RECORD
  5
75
330
1
100
AcDbSymbolTableRecord
100
AcDbBlockTableRecord
  2
_DOTBLANK
340
0
 70
     0
280
     1
281
     0
  0
BLOCK_RECORD
  5
7A
330
1
100
AcDbSymbolTableRecord
100
AcDbBlockTableRecord
  2
_DOT
340
0
 70
     0
280
     1
281
     0
  0
BLOCK_RECORD
  5
7F
330
1
100
AcDbSymbolTableRecord
100
AcDbBlockTableRecord
  2
_OPEN
340
0
 70
     0
280
     1
281
     0
  0
BLOCK_RECORD
  5
85
330
1
100
AcDbSymbolTableRecord
100
AcDbBlockTableRecord
  2
_CLOSED
340
0
 70
     0
280
     1
281
     0
  0
BLOCK_RECORD
  5
8C
330
1
100
AcDbSymbolTableRecord
100
AcDbBlockTableRecord
  2
_CLOSEDBLANK
340
0
 70
     0
280
     1
281
     0
  0
BLOCK_RECORD
  5
92
330
1
100
AcDbSymbolTableRecord
100
AcDbBlockTableRecord
  2
_ARROWFILLED
340
0
 70
     0
280
     1
281
     0
  0
BLOCK_RECORD
  5
96
330
1
100
AcDbSymbolTableRecord
100
AcDbBlockTableRecord
  2
_BOXBLANK
340
0
 70
     0
280
     1
281
     0
  0
BLOCK_RECORD
  5
9E
330
1
100
AcDbSymbolTableRecord
100
AcDbBlockTableRecord
  2
_BOXFILLED
340
0
 70
     0
280
     1
281
     0
  0
BLOCK_RECORD
  5
A3
330
1
100
AcDbSymbolTableRecord
100
AcDbBlockTableRecord
  2
_INTEGRAL
340
0
 70
     0
280
     1
281
     0
  0
BLOCK_RECORD
  5
A8
330
1
100
AcDbSymbolTableRecord
100
AcDbBlockTableRecord
  2
_OBLIQUE
340
0
 70
     0
280
     1
281
     0
  0
BLOCK_RECORD
  5
AC
330
1
100
AcDbSymbolTableRecord
100
AcDbBlockTableRecord
  2
_NONE
340
0
 70
     0
280
     1
281
     0
  0
BLOCK_RECORD
  5
AF
330
1
100
AcDbSymbolTableRecord
100
AcDbBlockTableRecord
  2
MARK_OPEN
340
0
 70
     0
280
     1
281
     0
  0
BLOCK_RECORD
  5
B4
330
1
100
AcDbSymbolTableRecord
100
AcDbBlockTableRecord
  2
MARK_ORIGIN
340
0
 70
     0
280
     1
281
     0
  0
BLOCK_RECORD
  5
B8
330
1
100
AcDbSymbolTableRecord
100
AcDbBlockTableRecord
  2
MARK_DOT
340
0
 70
     0
280
     1
281
     0
  0
BLOCK_RECORD
  5
E4
330
1
100
AcDbSymbolTableRecord
100
AcDbBlockTableRecord
  2
G1
340
0
102
{BLKREFS
331
3D6
102
}
 70
     0
280
     1
281
     0
  0
BLOCK_RECORD
  5
E7
330
1
100
AcDbSymbolTableRecord
100
AcDbBlockTableRecord
  2
G2
340
0
102
{BLKREFS
331
10F
102
}
 70
     0
280
     1
281
     0
  0
BLOCK_RECORD
  5
110
330
1
100
AcDbSymbolTableRecord
100
AcDbBlockTableRecord
  2
G3
340
0
102
{BLKREFS
331
126
102
}
 70
     0
280
     1
281
     0
  0
BLOCK_RECORD
  5
127
330
1
100
AcDbSymbolTableRecord
100
AcDbBlockTableRecord
  2
G4
340
0
102
{BLKREFS
331
16C
102
}
 70
     0
280
     1
281
     0
  0
BLOCK_RECORD
  5
16D
330
1
100
AcDbSymbolTableRecord
100
AcDbBlockTableRecord
  2
G5
340
0
102
{BLKREFS
331
19F
102
}
 70
     0
280
     1
281
     0
  0
BLOCK_RECORD
  5
1A0
330
1
100
AcDbSymbolTableRecord
100
AcDbBlockTableRecord
  2
G6
340
0
102
{BLKREFS
331
1A9
102
}
 70
     0
280
     1
281
     0
  0
BLOCK_RECORD
  5
1AA
330
1
100
AcDbSymbolTableRecord
100
AcDbBlockTableRecord
  2
G7
340
0
102
{BLKREFS
331
1B0
102
}
 70
     0
280
     1
281
     0
  0
BLOCK_RECORD
  5
1B1
330
1
100
AcDbSymbolTableRecord
100
AcDbBlockTableRecord
  2
G8
340
0
102
{BLKREFS
331
1D5
102
}
 70
     0
280
     1
281
     0
  0
BLOCK_RECORD
  5
1D6
330
1
100
AcDbSymbolTableRecord
100
AcDbBlockTableRecord
  2
G9
340
0
102
{BLKREFS
331
1EC
102
}
 70
     0
280
     1
281
     0
  0
BLOCK_RECORD
  5
1ED
330
1
100
AcDbSymbolTableRecord
100
AcDbBlockTableRecord
  2
G10
340
0
102
{BLKREFS
331
1FD
102
}
 70
     0
280
     1
281
     0
  0
BLOCK_RECORD
  5
1FE
330
1
100
AcDbSymbolTableRecord
100
AcDbBlockTableRecord
  2
G11
340
0
102
{BLKREFS
331
20B
102
}
 70
     0
280
     1
281
     0
  0
BLOCK_RECORD
  5
20C
330
1
100
AcDbSymbolTableRecord
100
AcDbBlockTableRecord
  2
G12
340
0
102
{BLKREFS
331
211
102
}
 70
     0
280
     1
281
     0
  0
BLOCK_RECORD
  5
212
330
1
100
AcDbSymbolTableRecord
100
AcDbBlockTableRecord
  2
G13
340
0
102
{BLKREFS
331
220
102
}
 70
     0
280
     1
281
     0
  0
BLOCK_RECORD
  5
221
330
1
100
AcDbSymbolTableRecord
100
AcDbBlockTableRecord
  2
G14
340
0
102
{BLKREFS
331
22F
102
}
 70
     0
280
     1
281
     0
  0
BLOCK_RECORD
  5
230
330
1
100
AcDbSymbolTableRecord
100
AcDbBlockTableRecord
  2
G15
340
0
102
{BLKREFS
331
23D
102
}
 70
     0
280
     1
281
     0
  0
BLOCK_RECORD
  5
23E
330
1
100
AcDbSymbolTableRecord
100
AcDbBlockTableRecord
  2
G16
340
0
102
{BLKREFS
331
25D
102
}
 70
     0
280
     1
281
     0
  0
BLOCK_RECORD
  5
25E
330
1
100
AcDbSymbolTableRecord
100
AcDbBlockTableRecord
  2
G17
340
0
102
{BLKREFS
331
27A
102
}
 70
     0
280
     1
281
     0
  0
BLOCK_RECORD
  5
27B
330
1
100
AcDbSymbolTableRecord
100
AcDbBlockTableRecord
  2
G18
340
0
102
{BLKREFS
331
287
102
}
 70
     0
280
     1
281
     0
  0
BLOCK_RECORD
  5
288
330
1
100
AcDbSymbolTableRecord
100
AcDbBlockTableRecord
  2
G19
340
0
102
{BLKREFS
331
28D
102
}
 70
     0
280
     1
281
     0
  0
BLOCK_RECORD
  5
28E
330
1
100
AcDbSymbolTableRecord
100
AcDbBlockTableRecord
  2
G20
340
0
102
{BLKREFS
331
299
102
}
 70
     0
280
     1
281
     0
  0
BLOCK_RECORD
  5
29A
330
1
100
AcDbSymbolTableRecord
100
AcDbBlockTableRecord
  2
G21
340
0
102
{BLKREFS
331
29F
102
}
 70
     0
280
     1
281
     0
  0
BLOCK_RECORD
  5
2A0
330
1
100
AcDbSymbolTableRecord
100
AcDbBlockTableRecord
  2
G22
340
0
102
{BLKREFS
331
2A5
102
}
 70
     0
280
     1
281
     0
  0
BLOCK_RECORD
  5
2A6
330
1
100
AcDbSymbolTableRecord
100
AcDbBlockTableRecord
  2
G23
340
0
102
{BLKREFS
331
2AB
102
}
 70
     0
280
     1
281
     0
  0
BLOCK_RECORD
  5
2AC
330
1
100
AcDbSymbolTableRecord
100
AcDbBlockTableRecord
  2
G24
340
0
102
{BLKREFS
331
2B1
102
}
 70
     0
280
     1
281
     0
  0
BLOCK_RECORD
  5
2B2
330
1
100
AcDbSymbolTableRecord
100
AcDbBlockTableRecord
  2
G25
340
0
102
{BLKREFS
331
2B8
102
}
 70
     0
280
     1
281
     0
  0
BLOCK_RECORD
  5
2B9
330
1
100
AcDbSymbolTableRecord
100
AcDbBlockTableRecord
  2
G26
340
0
102
{BLKREFS
331
2BE
102
}
 70
     0
280
     1
281
     0
  0
BLOCK_RECORD
  5
2BF
330
1
100
AcDbSymbolTableRecord
100
AcDbBlockTableRecord
  2
G27
340
0
102
{BLKREFS
331
2C4
102
}
 70
     0
280
     1
281
     0
  0
BLOCK_RECORD
  5
2C5
330
1
100
AcDbSymbolTableRecord
100
AcDbBlockTableRecord
  2
G28
340
0
102
{BLKREFS
331
2CA
102
}
 70
     0
280
     1
281
     0
  0
BLOCK_RECORD
  5
2CB
330
1
100
AcDbSymbolTableRecord
100
AcDbBlockTableRecord
  2
G29
340
0
102
{BLKREFS
331
2D2
102
}
 70
     0
280
     1
281
     0
  0
BLOCK_RECORD
  5
2D3
330
1
100
AcDbSymbolTableRecord
100
AcDbBlockTableRecord
  2
G30
340
0
102
{BLKREFS
331
2E0
102
}
 70
     0
280
     1
281
     0
  0
BLOCK_RECORD
  5
2E1
330
1
100
AcDbSymbolTableRecord
100
AcDbBlockTableRecord
  2
G31
340
0
102
{BLKREFS
331
2E6
102
}
 70
     0
280
     1
281
     0
  0
BLOCK_RECORD
  5
2E7
330
1
100
AcDbSymbolTableRecord
100
AcDbBlockTableRecord
  2
G32
340
0
102
{BLKREFS
331
2F7
102
}
 70
     0
280
     1
281
     0
  0
BLOCK_RECORD
  5
2F8
330
1
100
AcDbSymbolTableRecord
100
AcDbBlockTableRecord
  2
G33
340
0
102
{BLKREFS
331
306
102
}
 70
     0
280
     1
281
     0
  0
BLOCK_RECORD
  5
307
330
1
100
AcDbSymbolTableRecord
100
AcDbBlockTableRecord
  2
G34
340
0
102
{BLKREFS
331
327
102
}
 70
     0
280
     1
281
     0
  0
BLOCK_RECORD
  5
328
330
1
100
AcDbSymbolTableRecord
100
AcDbBlockTableRecord
  2
G35
340
0
102
{BLKREFS
331
34D
102
}
 70
     0
280
     1
281
     0
  0
BLOCK_RECORD
  5
34E
330
1
100
AcDbSymbolTableRecord
100
AcDbBlockTableRecord
  2
G36
340
0
102
{BLKREFS
331
357
102
}
 70
     0
280
     1
281
     0
  0
BLOCK_RECORD
  5
358
330
1
100
AcDbSymbolTableRecord
100
AcDbBlockTableRecord
  2
G37
340
0
102
{BLKREFS
331
371
102
}
 70
     0
280
     1
281
     0
  0
BLOCK_RECORD
  5
372
330
1
100
AcDbSymbolTableRecord
100
AcDbBlockTableRecord
  2
G38
340
0
102
{BLKREFS
331
394
102
}
 70
     0
280
     1
281
     0
  0
BLOCK_RECORD
  5
395
330
1
100
AcDbSymbolTableRecord
100
AcDbBlockTableRecord
  2
G39
340
0
102
{BLKREFS
331
3A3
102
}
 70
     0
280
     1
281
     0
  0
BLOCK_RECORD
  5
3A4
330
1
100
AcDbSymbolTableRecord
100
AcDbBlockTableRecord
  2
G40
340
0
102
{BLKREFS
331
3B3
102
}
 70
     0
280
     1
281
     0
  0
BLOCK_RECORD
  5
3B4
330
1
100
AcDbSymbolTableRecord
100
AcDbBlockTableRecord
  2
G41
340
0
102
{BLKREFS
331
3C4
102
}
 70
     0
280
     1
281
     0
  0
BLOCK_RECORD
  5
3C5
330
1
100
AcDbSymbolTableRecord
100
AcDbBlockTableRecord
  2
G42
340
0
102
{BLKREFS
331
3D5
102
}
 70
     0
280
     1
281
     0
  0
ENDTAB
  0
ENDSEC
  0
SECTION
  2
BLOCKS
  0
BLOCK
  5
20
330
1F
100
AcDbEntity
  8
0
100
AcDbBlockBegin
  2
*Model_Space
 70
     0
 10
0.0
 20
0.0
 30
0.0
  3
*Model_Space
  1

  0
ENDBLK
  5
21
330
1F
100
AcDbEntity
  8
0
100
AcDbBlockEnd
  0
BLOCK
  5
1C
330
1B
100
AcDbEntity
 67
     1
  8
0
100
AcDbBlockBegin
  2
*Paper_Space
 70
     0
 10
0.0
 20
0.0
 30
0.0
  3
*Paper_Space
  1

  0
ENDBLK
  5
1D
330
1B
100
AcDbEntity
 67
     1
  8
0
100
AcDbBlockEnd
  0
BLOCK
  5
24
330
23
100
AcDbEntity
  8
0
100
AcDbBlockBegin
  2
*Paper_Space0
 70
     0
 10
0.0
 20
0.0
 30
0.0
  3
*Paper_Space0
  1

  0
ENDBLK
  5
25
330
23
100
AcDbEntity
  8
0
100
AcDbBlockEnd
  0
BLOCK
  5
73
330
70
100
AcDbEntity
  8
0
100
AcDbBlockBegin
  2
_ORIGIN
 70
     0
 10
0.0
 20
0.0
 30
0.0
  3
_ORIGIN
  1

  0
CIRCLE
  5
71
330
70
100
AcDbEntity
  8
0
 62
     0
100
AcDbCircle
 10
0.0
 20
0.0
 30
0.0
 40
0.5
  0
LINE
  5
72
330
70
100
AcDbEntity
  8
0
 62
     0
100
AcDbLine
 10
0.0
 20
0.0
 30
0.0
 11
-1.0
 21
0.0
 31
0.0
  0
ENDBLK
  5
74
330
70
100
AcDbEntity
  8
0
100
AcDbBlockEnd
  0
BLOCK
  5
78
330
75
100
AcDbEntity
  8
0
100
AcDbBlockBegin
  2
_DOTBLANK
 70
     0
 10
0.0
 20
0.0
 30
0.0
  3
_DOTBLANK
  1

  0
CIRCLE
  5
76
330
75
100
AcDbEntity
  8
0
 62
     0
100
AcDbCircle
 10
0.0
 20
0.0
 30
0.0
 40
0.5
  0
LINE
  5
77
330
75
100
AcDbEntity
  8
0
 62
     0
100
AcDbLine
 10
-0.5
 20
0.0
 30
0.0
 11
-1.0
 21
0.0
 31
0.0
  0
ENDBLK
  5
79
330
75
100
AcDbEntity
  8
0
100
AcDbBlockEnd
  0
BLOCK
  5
7D
330
7A
100
AcDbEntity
  8
0
100
AcDbBlockBegin
  2
_DOT
 70
     0
 10
0.0
 20
0.0
 30
0.0
  3
_DOT
  1

  0
LWPOLYLINE
  5
7B
330
7A
100
AcDbEntity
  8
0
 62
     0
100
AcDbPolyline
 90
        2
 70
     1
 43
0.5
 10
-0.25
 20
0.0
 42
1.0
 10
0.25
 20
0.0
 42
1.0
  0
LINE
  5
7C
330
7A
100
AcDbEntity
  8
0
 62
     0
100
AcDbLine
 10
-0.5
 20
0.0
 30
0.0
 11
-1.0
 21
0.0
 31
0.0
  0
ENDBLK
  5
7E
330
7A
100
AcDbEntity
  8
0
100
AcDbBlockEnd
  0
BLOCK
  5
83
330
7F
100
AcDbEntity
  8
0
100
AcDbBlockBegin
  2
_OPEN
 70
     0
 10
0.0
 20
0.0
 30
0.0
  3
_OPEN
  1

  0
LINE
  5
80
330
7F
100
AcDbEntity
  8
0
 62
     0
100
AcDbLine
 10
0.0
 20
0.0
 30
0.0
 11
-1.0
 21
0.1666666666666667
 31
0.0
  0
LINE
  5
81
330
7F
100
AcDbEntity
  8
0
 62
     0
100
AcDbLine
 10
0.0
 20
0.0
 30
0.0
 11
-1.0
 21
-0.1666666666666667
 31
0.0
  0
LINE
  5
82
330
7F
100
AcDbEntity
  8
0
 62
     0
100
AcDbLine
 10
0.0
 20
0.0
 30
0.0
 11
-1.0
 21
0.0
 31
0.0
  0
ENDBLK
  5
84
330
7F
100
AcDbEntity
  8
0
100
AcDbBlockEnd
  0
BLOCK
  5
8A
330
85
100
AcDbEntity
  8
0
100
AcDbBlockBegin
  2
_CLOSED
 70
     0
 10
0.0
 20
0.0
 30
0.0
  3
_CLOSED
  1

  0
LINE
  5
86
330
85
100
AcDbEntity
  8
0
 62
     0
100
AcDbLine
 10
0.0
 20
0.0
 30
0.0
 11
-1.0
 21
0.1666666666666667
 31
0.0
  0
LINE
  5
87
330
85
100
AcDbEntity
  8
0
 62
     0
100
AcDbLine
 10
0.0
 20
0.0
 30
0.0
 11
-1.0
 21
-0.1666666666666667
 31
0.0
  0
LINE
  5
88
330
85
100
AcDbEntity
  8
0
 62
     0
100
AcDbLine
 10
-1.0
 20
0.1666666666666667
 30
0.0
 11
-1.0
 21
-0.1666666666666667
 31
0.0
  0
LINE
  5
89
330
85
100
AcDbEntity
  8
0
 62
     0
100
AcDbLine
 10
0.0
 20
0.0
 30
0.0
 11
-1.0
 21
0.0
 31
0.0
  0
ENDBLK
  5
8B
330
85
100
AcDbEntity
  8
0
100
AcDbBlockEnd
  0
BLOCK
  5
90
330
8C
100
AcDbEntity
  8
0
100
AcDbBlockBegin
  2
_CLOSEDBLANK
 70
     0
 10
0.0
 20
0.0
 30
0.0
  3
_CLOSEDBLANK
  1

  0
LINE
  5
8D
330
8C
100
AcDbEntity
  8
0
 62
     0
100
AcDbLine
 10
0.0
 20
0.0
 30
0.0
 11
-1.0
 21
0.1666666666666667
 31
0.0
  0
LINE
  5
8E
330
8C
100
AcDbEntity
  8
0
 62
     0
100
AcDbLine
 10
0.0
 20
0.0
 30
0.0
 11
-1.0
 21
-0.1666666666666667
 31
0.0
  0
LINE
  5
8F
330
8C
100
AcDbEntity
  8
0
 62
     0
100
AcDbLine
 10
-1.0
 20
0.1666666666666667
 30
0.0
 11
-1.0
 21
-0.1666666666666667
 31
0.0
  0
ENDBLK
  5
91
330
8C
100
AcDbEntity
  8
0
100
AcDbBlockEnd
  0
BLOCK
  5
94
330
92
100
AcDbEntity
  8
0
100
AcDbBlockBegin
  2
_ARROWFILLED
 70
     0
 10
0.0
 20
0.0
 30
0.0
  3
_ARROWFILLED
  1

  0
SOLID
  5
93
330
92
100
AcDbEntity
  8
0
 62
     0
100
AcDbTrace
 10
0.0
 20
0.0
 30
0.0
 11
-1.0
 21
-0.1666666666666667
 31
0.0
 12
-1.0
 22
0.1666666666666667
 32
0.0
 13
0.0
 23
0.0
 33
0.0
  0
ENDBLK
  5
95
330
92
100
AcDbEntity
  8
0
100
AcDbBlockEnd
  0
BLOCK
  5
9C
330
96
100
AcDbEntity
  8
0
100
AcDbBlockBegin
  2
_BOXBLANK
 70
     0
 10
0.0
 20
0.0
 30
0.0
  3
_BOXBLANK
  1

  0
LINE
  5
97
330
96
100
AcDbEntity
  8
0
 62
     0
100
AcDbLine
 10
-0.5
 20
-0.5
 30
0.0
 11
0.5
 21
-0.5
 31
0.0
  0
LINE
  5
98
330
96
100
AcDbEntity
  8
0
 62
     0
100
AcDbLine
 10
0.5
 20
-0.5
 30
0.0
 11
0.5
 21
0.5
 31
0.0
  0
LINE
  5
99
330
96
100
AcDbEntity
  8
0
 62
     0
100
AcDbLine
 10
0.5
 20
0.5
 30
0.0
 11
-0.5
 21
0.5
 31
0.0
  0
LINE
  5
9A
330
96
100
AcDbEntity
  8
0
 62
     0
100
AcDbLine
 10
-0.5
 20
0.5
 30
0.0
 11
-0.5
 21
-0.5
 31
0.0
  0
LINE
  5
9B
330
96
100
AcDbEntity
  8
0
 62
     0
100
AcDbLine
 10
-0.5
 20
0.0
 30
0.0
 11
-1.0
 21
0.0
 31
0.0
  0
ENDBLK
  5
9D
330
96
100
AcDbEntity
  8
0
100
AcDbBlockEnd
  0
BLOCK
  5
A1
330
9E
100
AcDbEntity
  8
0
100
AcDbBlockBegin
  2
_BOXFILLED
 70
     0
 10
0.0
 20
0.0
 30
0.0
  3
_BOXFILLED
  1

  0
SOLID
  5
9F
330
9E
100
AcDbEntity
  8
0
 62
     0
100
AcDbTrace
 10
-0.5
 20
0.5
 30
0.0
 11
0.5
 21
0.5
 31
0.0
 12
-0.5
 22
-0.5
 32
0.0
 13
0.5
 23
-0.5
 33
0.0
  0
LINE
  5
A0
330
9E
100
AcDbEntity
  8
0
 62
     0
100
AcDbLine
 10
-0.5
 20
0.0
 30
0.0
 11
-1.0
 21
0.0
 31
0.0
  0
ENDBLK
  5
A2
330
9E
100
AcDbEntity
  8
0
100
AcDbBlockEnd
  0
BLOCK
  5
A6
330
A3
100
AcDbEntity
  8
0
100
AcDbBlockBegin
  2
_INTEGRAL
 70
     0
 10
0.0
 20
0.0
 30
0.0
  3
_INTEGRAL
  1

  0
ARC
  5
A4
330
A3
100
AcDbEntity
  8
0
 62
     0
100
AcDbCircle
 10
0.444888
 20
-0.0913346
 30
0.0
 40
0.4541666
100
AcDbArc
 50
101.9999999999999
 51
167.9999999999998
  0
ARC
  5
A5
330
A3
100
AcDbEntity
  8
0
 62
     0
100
AcDbCircle
 10
-0.444888
 20
0.0913346
 30
0.0
 40
0.4541666
100
AcDbArc
 50
281.9999999999997
 51
347.9999999999997
  0
ENDBLK
  5
A7
330
A3
100
AcDbEntity
  8
0
100
AcDbBlockEnd
  0
BLOCK
  5
AA
330
A8
100
AcDbEntity
  8
0
100
AcDbBlockBegin
  2
_OBLIQUE
 70
     0
 10
0.0
 20
0.0
 30
0.0
  3
_OBLIQUE
  1

  0
LINE
  5
A9
330
A8
100
AcDbEntity
  8
0
 62
     0
100
AcDbLine
 10
-0.5
 20
-0.5
 30
0.0
 11
0.5
 21
0.5
 31
0.0
  0
ENDBLK
  5
AB
330
A8
100
AcDbEntity
  8
0
100
AcDbBlockEnd
  0
BLOCK
  5
AD
330
AC
100
AcDbEntity
  8
0
100
AcDbBlockBegin
  2
_NONE
 70
     0
 10
0.0
 20
0.0
 30
0.0
  3
_NONE
  1

  0
ENDBLK
  5
AE
330
AC
100
AcDbEntity
  8
0
100
AcDbBlockEnd
  0
BLOCK
  5
B2
330
AF
100
AcDbEntity
  8
0
100
AcDbBlockBegin
  2
MARK_OPEN
 70
     0
 10
0.0
 20
0.0
 30
0.0
  3
MARK_OPEN
  1

  0
LINE
  5
B0
330
AF
100
AcDbEntity
  8
0
 62
     0
100
AcDbLine
 10
0.0
 20
0.0
 30
0.0
 11
-1.0
 21
0.1666666666666667
 31
0.0
  0
LINE
  5
B1
330
AF
100
AcDbEntity
  8
0
 62
     0
100
AcDbLine
 10
0.0
 20
0.0
 30
0.0
 11
-1.0
 21
-0.1666666666666667
 31
0.0
  0
ENDBLK
  5
B3
330
AF
100
AcDbEntity
  8
0
100
AcDbBlockEnd
  0
BLOCK
  5
B6
330
B4
100
AcDbEntity
  8
0
100
AcDbBlockBegin
  2
MARK_ORIGIN
 70
     0
 10
0.0
 20
0.0
 30
0.0
  3
MARK_ORIGIN
  1

  0
CIRCLE
  5
B5
330
B4
100
AcDbEntity
  8
0
 62
     0
100
AcDbCircle
 10
0.0
 20
0.0
 30
0.0
 40
0.5
  0
ENDBLK
  5
B7
330
B4
100
AcDbEntity
  8
0
100
AcDbBlockEnd
  0
BLOCK
  5
BA
330
B8
100
AcDbEntity
  8
0
100
AcDbBlockBegin
  2
MARK_DOT
 70
     0
 10
0.0
 20
0.0
 30
0.0
  3
MARK_DOT
  1

  0
LWPOLYLINE
  5
B9
330
B8
100
AcDbEntity
  8
0
 62
     0
100
AcDbPolyline
 90
        2
 70
     1
 43
0.5
 10
-0.25
 20
0.0
 42
1.0
 10
0.25
 20
0.0
 42
1.0
  0
ENDBLK
  5
BB
330
B8
100
AcDbEntity
  8
0
100
AcDbBlockEnd
  0
BLOCK
  5
E5
330
E4
100
AcDbEntity
  8
0
100
AcDbBlockBegin
  2
G1
 70
     0
 10
0.0
 20
0.0
 30
0.0
  3
G1
  1

  0
INSERT
  5
10F
330
E4
100
AcDbEntity
  8
0
100
AcDbBlockReference
  2
G2
 10
0.0
 20
0.0
 30
0.0
  0
INSERT
  5
126
330
E4
100
AcDbEntity
  8
0
100
AcDbBlockReference
  2
G3
 10
0.0
 20
0.0
 30
0.0
  0
INSERT
  5
16C
330
E4
100
AcDbEntity
  8
0
100
AcDbBlockReference
  2
G4
 10
0.0
 20
0.0
 30
0.0
  0
INSERT
  5
19F
330
E4
100
AcDbEntity
  8
0
100
AcDbBlockReference
  2
G5
 10
0.0
 20
0.0
 30
0.0
  0
INSERT
  5
1A9
330
E4
100
AcDbEntity
  8
0
100
AcDbBlockReference
  2
G6
 10
0.0
 20
0.0
 30
0.0
  0
INSERT
  5
1B0
330
E4
100
AcDbEntity
  8
0
100
AcDbBlockReference
  2
G7
 10
0.0
 20
0.0
 30
0.0
  0
INSERT
  5
1D5
330
E4
100
AcDbEntity
  8
0
100
AcDbBlockReference
  2
G8
 10
0.0
 20
0.0
 30
0.0
  0
INSERT
  5
1EC
330
E4
100
AcDbEntity
  8
0
100
AcDbBlockReference
  2
G9
 10
0.0
 20
0.0
 30
0.0
  0
INSERT
  5
1FD
330
E4
100
AcDbEntity
  8
0
100
AcDbBlockReference
  2
G10
 10
0.0
 20
0.0
 30
0.0
  0
INSERT
  5
20B
330
E4
100
AcDbEntity
  8
0
100
AcDbBlockReference
  2
G11
 10
0.0
 20
0.0
 30
0.0
  0
INSERT
  5
211
330
E4
100
AcDbEntity
  8
0
100
AcDbBlockReference
  2
G12
 10
0.0
 20
0.0
 30
0.0
  0
INSERT
  5
220
330
E4
100
AcDbEntity
  8
0
100
AcDbBlockReference
  2
G13
 10
0.0
 20
0.0
 30
0.0
  0
INSERT
  5
22F
330
E4
100
AcDbEntity
  8
0
100
AcDbBlockReference
  2
G14
 10
0.0
 20
0.0
 30
0.0
  0
INSERT
  5
23D
330
E4
100
AcDbEntity
  8
0
100
AcDbBlockReference
  2
G15
 10
0.0
 20
0.0
 30
0.0
  0
INSERT
  5
25D
330
E4
100
AcDbEntity
  8
0
100
AcDbBlockReference
  2
G16
 10
0.0
 20
0.0
 30
0.0
  0
INSERT
  5
27A
330
E4
100
AcDbEntity
  8
0
100
AcDbBlockReference
  2
G17
 10
0.0
 20
0.0
 30
0.0
  0
INSERT
  5
287
330
E4
100
AcDbEntity
  8
0
100
AcDbBlockReference
  2
G18
 10
0.0
 20
0.0
 30
0.0
  0
INSERT
  5
28D
330
E4
100
AcDbEntity
  8
0
100
AcDbBlockReference
  2
G19
 10
0.0
 20
0.0
 30
0.0
  0
INSERT
  5
299
330
E4
100
AcDbEntity
  8
0
100
AcDbBlockReference
  2
G20
 10
0.0
 20
0.0
 30
0.0
  0
INSERT
  5
29F
330
E4
100
AcDbEntity
  8
0
100
AcDbBlockReference
  2
G21
 10
0.0
 20
0.0
 30
0.0
  0
INSERT
  5
2A5
330
E4
100
AcDbEntity
  8
0
100
AcDbBlockReference
  2
G22
 10
0.0
 20
0.0
 30
0.0
  0
INSERT
  5
2AB
330
E4
100
AcDbEntity
  8
0
100
AcDbBlockReference
  2
G23
 10
0.0
 20
0.0
 30
0.0
  0
INSERT
  5
2B1
330
E4
100
AcDbEntity
  8
0
100
AcDbBlockReference
  2
G24
 10
0.0
 20
0.0
 30
0.0
  0
INSERT
  5
2B8
330
E4
100
AcDbEntity
  8
0
100
AcDbBlockReference
  2
G25
 10
0.0
 20
0.0
 30
0.0
  0
INSERT
  5
2BE
330
E4
100
AcDbEntity
  8
0
100
AcDbBlockReference
  2
G26
 10
0.0
 20
0.0
 30
0.0
  0
INSERT
  5
2C4
330
E4
100
AcDbEntity
  8
0
100
AcDbBlockReference
  2
G27
 10
0.0
 20
0.0
 30
0.0
  0
INSERT
  5
2CA
330
E4
100
AcDbEntity
  8
0
100
AcDbBlockReference
  2
G28
 10
0.0
 20
0.0
 30
0.0
  0
INSERT
  5
2D2
330
E4
100
AcDbEntity
  8
0
100
AcDbBlockReference
  2
G29
 10
0.0
 20
0.0
 30
0.0
  0
INSERT
  5
2E0
330
E4
100
AcDbEntity
  8
0
100
AcDbBlockReference
  2
G30
 10
0.0
 20
0.0
 30
0.0
  0
INSERT
  5
2E6
330
E4
100
AcDbEntity
  8
0
100
AcDbBlockReference
  2
G31
 10
0.0
 20
0.0
 30
0.0
  0
INSERT
  5
2F7
330
E4
100
AcDbEntity
  8
0
100
AcDbBlockReference
  2
G32
 10
0.0
 20
0.0
 30
0.0
  0
INSERT
  5
306
330
E4
100
AcDbEntity
  8
0
100
AcDbBlockReference
  2
G33
 10
0.0
 20
0.0
 30
0.0
  0
INSERT
  5
327
330
E4
100
AcDbEntity
  8
0
100
AcDbBlockReference
  2
G34
 10
0.0
 20
0.0
 30
0.0
  0
INSERT
  5
34D
330
E4
100
AcDbEntity
  8
0
100
AcDbBlockReference
  2
G35
 10
0.0
 20
0.0
 30
0.0
  0
INSERT
  5
357
330
E4
100
AcDbEntity
  8
0
100
AcDbBlockReference
  2
G36
 10
0.0
 20
0.0
 30
0.0
  0
INSERT
  5
371
330
E4
100
AcDbEntity
  8
0
100
AcDbBlockReference
  2
G37
 10
0.0
 20
0.0
 30
0.0
  0
INSERT
  5
394
330
E4
100
AcDbEntity
  8
0
100
AcDbBlockReference
  2
G38
 10
0.0
 20
0.0
 30
0.0
  0
INSERT
  5
3A3
330
E4
100
AcDbEntity
  8
0
100
AcDbBlockReference
  2
G39
 10
0.0
 20
0.0
 30
0.0
  0
INSERT
  5
3B3
330
E4
100
AcDbEntity
  8
0
100
AcDbBlockReference
  2
G40
 10
0.0
 20
0.0
 30
0.0
  0
INSERT
  5
3C4
330
E4
100
AcDbEntity
  8
0
100
AcDbBlockReference
  2
G41
 10
0.0
 20
0.0
 30
0.0
  0
INSERT
  5
3D5
330
E4
100
AcDbEntity
  8
0
100
AcDbBlockReference
  2
G42
 10
0.0
 20
0.0
 30
0.0
  0
ENDBLK
  5
E6
330
E4
100
AcDbEntity
  8
0
100
AcDbBlockEnd
  0
BLOCK
  5
E8
330
E7
100
AcDbEntity
  8
0
100
AcDbBlockBegin
  2
G2
 70
     0
 10
0.0
 20
0.0
 30
0.0
  3
G2
  1

  0
LINE
  5
EA
330
E7
100
AcDbEntity
  8
100
  6
Continuous
 62
     7
370
    30
100
AcDbLine
 10
109.876969
 20
-103.800729
 30
0.0
 11
113.067878
 21
-104.782547
 31
0.0
  0
LINE
  5
EB
330
E7
100
AcDbEntity
  8
100
  6
Continuous
 62
     7
370
    30
100
AcDbLine
 10
113.067878
 20
-104.782547
 30
0.0
 11
115.890605
 21
-105.150729
 31
0.0
  0
LINE
  5
EC
330
E7
100
AcDbEntity
  8
100
  6
Continuous
 62
     7
370
    30
100
AcDbLine
 10
115.890605
 20
-105.150729
 30
0.0
 11
123.008787
 21
-104.168911
 31
0.0
  0
LINE
  5
ED
330
E7
100
AcDbEntity
  8
100
  6
Continuous
 62
     7
370
    30
100
AcDbLine
 10
123.008787
 20
-104.168911
 30
0.0
 11
133.317878
 21
-100.118911
 31
0.0
  0
LINE
  5
EE
330
E7
100
AcDbEntity
  8
100
  6
Continuous
 62
     7
370
    30
100
AcDbLine
 10
133.317878
 20
-100.118911
 30
0.0
 11
142.031514
 21
-95.946183
 31
0.0
  0
LINE
  5
EF
330
E7
100
AcDbEntity
  8
100
  6
Continuous
 62
     7
370
    30
100
AcDbLine
 10
142.031514
 20
-95.946183
 30
0.0
 11
147.922423
 21
-91.405274
 31
0.0
  0
LINE
  5
F0
330
E7
100
AcDbEntity
  8
100
  6
Continuous
 62
     7
370
    30
100
AcDbLine
 10
147.922423
 20
-91.405274
 30
0.0
 11
154.181514
 21
-86.128001
 31
0.0
  0
LINE
  5
F1
330
E7
100
AcDbEntity
  8
100
  6
Continuous
 62
     7
370
    30
100
AcDbLine
 10
154.181514
 20
-86.128001
 30
0.0
 11
159.704241
 21
-79.623456
 31
0.0
  0
LINE
  5
F2
330
E7
100
AcDbEntity
  8
100
  6
Continuous
 62
     7
370
    30
100
AcDbLine
 10
159.704241
 20
-79.623456
 30
0.0
 11
164.490605
 21
-71.768911
 31
0.0
  0
LINE
  5
F3
330
E7
100
AcDbEntity
  8
100
  6
Continuous
 62
     7
370
    30
100
AcDbLine
 10
164.490605
 20
-71.768911
 30
0.0
 11
167.681514
 21
-65.264365
 31
0.0
  0
LINE
  5
F4
330
E7
100
AcDbEntity
  8
100
  6
Continuous
 62
     7
370
    30
100
AcDbLine
 10
167.681514
 20
-65.264365
 30
0.0
 11
170.013332
 21
-57.655274
 31
0.0
  0
LINE
  5
F5
330
E7
100
AcDbEntity
  8
100
  6
Continuous
 62
     7
370
    30
100
AcDbLine
 10
170.013332
 20
-57.655274
 30
0.0
 11
171.240605
 21
-52.132547
 31
0.0
  0
LINE
  5
F6
330
E7
100
AcDbEntity
  8
100
  6
Continuous
 62
     7
370
    30
100
AcDbLine
 10
171.240605
 20
-52.132547
 30
0.0
 11
171.48606
 21
-42.55982
 31
0.0
  0
LINE
  5
F7
330
E7
100
AcDbEntity
  8
100
  6
Continuous
 62
     7
370
    30
100
AcDbLine
 10
171.48606
 20
-42.55982
 30
0.0
 11
171.48606
 21
-29.673456
 31
0.0
  0
LINE
  5
F8
330
E7
100
AcDbEntity
  8
100
  6
Continuous
 62
     7
370
    30
100
AcDbLine
 10
171.48606
 20
-29.673456
 30
0.0
 11
172.222423
 21
-25.746183
 31
0.0
  0
LINE
  5
F9
330
E7
100
AcDbEntity
  8
100
  6
Continuous
 62
     7
370
    30
100
AcDbLine
 10
172.222423
 20
-25.746183
 30
0.0
 11
170.872423
 21
-24.518911
 31
0.0
  0
LINE
  5
FA
330
E7
100
AcDbEntity
  8
100
  6
Continuous
 62
     7
370
    30
100
AcDbLine
 10
170.872423
 20
-24.518911
 30
0.0
 11
168.540605
 21
-24.396183
 31
0.0
  0
LINE
  5
FB
330
E7
100
AcDbEntity
  8
100
  6
Continuous
 62
     7
370
    30
100
AcDbLine
 10
168.540605
 20
-24.396183
 30
0.0
 11
165.840605
 21
-25.500729
 31
0.0
  0
LINE
  5
FC
330
E7
100
AcDbEntity
  8
100
  6
Continuous
 62
     7
370
    30
100
AcDbLine
 10
165.840605
 20
-25.500729
 30
0.0
 11
164.73606
 21
-27.955274
 31
0.0
  0
LINE
  5
FD
330
E7
100
AcDbEntity
  8
100
  6
Continuous
 62
     7
370
    30
100
AcDbLine
 10
164.73606
 20
-27.955274
 30
0.0
 11
164.367878
 21
-29.550729
 31
0.0
  0
LINE
  5
FE
330
E7
100
AcDbEntity
  8
100
  6
Continuous
 62
     7
370
    30
100
AcDbLine
 10
164.367878
 20
-29.550729
 30
0.0
 11
165.840605
 21
-32.496183
 31
0.0
  0
LINE
  5
FF
330
E7
100
AcDbEntity
  8
100
  6
Continuous
 62
     7
370
    30
100
AcDbLine
 10
165.840605
 20
-32.496183
 30
0.0
 11
166.208787
 21
-35.196183
 31
0.0
  0
LINE
  5
100
330
E7
100
AcDbEntity
  8
100
  6
Continuous
 62
     7
370
    30
100
AcDbLine
 10
166.208787
 20
-35.196183
 30
0.0
 11
166.08606
 21
-40.228001
 31
0.0
  0
LINE
  5
101
330
E7
100
AcDbEntity
  8
100
  6
Continuous
 62
     7
370
    30
100
AcDbLine
 10
166.08606
 20
-40.228001
 30
0.0
 11
165.963332
 21
-47.95982
 31
0.0
  0
LINE
  5
102
330
E7
100
AcDbEntity
  8
100
  6
Continuous
 62
     7
370
    30
100
AcDbLine
 10
165.963332
 20
-47.95982
 30
0.0
 11
164.858787
 21
-55.814365
 31
0.0
  0
LINE
  5
103
330
E7
100
AcDbEntity
  8
100
  6
Continuous
 62
     7
370
    30
100
AcDbLine
 10
164.858787
 20
-55.814365
 30
0.0
 11
162.404241
 21
-63.546183
 31
0.0
  0
LINE
  5
104
330
E7
100
AcDbEntity
  8
100
  6
Continuous
 62
     7
370
    30
100
AcDbLine
 10
162.404241
 20
-63.546183
 30
0.0
 11
159.581514
 21
-69.682547
 31
0.0
  0
LINE
  5
105
330
E7
100
AcDbEntity
  8
100
  6
Continuous
 62
     7
370
    30
100
AcDbLine
 10
159.581514
 20
-69.682547
 30
0.0
 11
156.267878
 21
-75.450729
 31
0.0
  0
LINE
  5
106
330
E7
100
AcDbEntity
  8
100
  6
Continuous
 62
     7
370
    30
100
AcDbLine
 10
156.267878
 20
-75.450729
 30
0.0
 11
151.849696
 21
-80.973456
 31
0.0
  0
LINE
  5
107
330
E7
100
AcDbEntity
  8
100
  6
Continuous
 62
     7
370
    30
100
AcDbLine
 10
151.849696
 20
-80.973456
 30
0.0
 11
147.18606
 21
-85.514365
 31
0.0
  0
LINE
  5
108
330
E7
100
AcDbEntity
  8
100
  6
Continuous
 62
     7
370
    30
100
AcDbLine
 10
147.18606
 20
-85.514365
 30
0.0
 11
141.908787
 21
-89.196183
 31
0.0
  0
LINE
  5
109
330
E7
100
AcDbEntity
  8
100
  6
Continuous
 62
     7
370
    30
100
AcDbLine
 10
141.908787
 20
-89.196183
 30
0.0
 11
135.649696
 21
-93.000729
 31
0.0
  0
LINE
  5
10A
330
E7
100
AcDbEntity
  8
100
  6
Continuous
 62
     7
370
    30
100
AcDbLine
 10
135.649696
 20
-93.000729
 30
0.0
 11
130.004241
 21
-95.578001
 31
0.0
  0
LINE
  5
10B
330
E7
100
AcDbEntity
  8
100
  6
Continuous
 62
     7
370
    30
100
AcDbLine
 10
130.004241
 20
-95.578001
 30
0.0
 11
124.113332
 21
-97.90982
 31
0.0
  0
LINE
  5
10C
330
E7
100
AcDbEntity
  8
100
  6
Continuous
 62
     7
370
    30
100
AcDbLine
 10
124.113332
 20
-97.90982
 30
0.0
 11
118.713332
 21
-99.505274
 31
0.0
  0
LINE
  5
10D
330
E7
100
AcDbEntity
  8
100
  6
Continuous
 62
     7
370
    30
100
AcDbLine
 10
118.713332
 20
-99.505274
 30
0.0
 11
115.031514
 21
-99.137092
 31
0.0
  0
LINE
  5
10E
330
E7
100
AcDbEntity
  8
100
  6
Continuous
 62
     7
370
    30
100
AcDbLine
 10
115.031514
 20
-99.137092
 30
0.0
 11
111.963332
 21
-98.400729
 31
0.0
  0
ENDBLK
  5
E9
330
E7
100
AcDbEntity
  8
0
100
AcDbBlockEnd
  0
BLOCK
  5
111
330
110
100
AcDbEntity
  8
0
100
AcDbBlockBegin
  2
G3
 70
     0
 10
0.0
 20
0.0
 30
0.0
  3
G3
  1

  0
LINE
  5
113
330
110
100
AcDbEntity
  8
100
  6
Continuous
 62
     7
370
    30
100
AcDbLine
 10
112.699696
 20
-95.700729
 30
0.0
 11
118.713332
 21
-94.228001
 31
0.0
  0
LINE
  5
114
330
110
100
AcDbEntity
  8
100
  6
Continuous
 62
     7
370
    30
100
AcDbLine
 10
118.713332
 20
-94.228001
 30
0.0
 11
126.322423
 21
-91.896183
 31
0.0
  0
LINE
  5
115
330
110
100
AcDbEntity
  8
100
  6
Continuous
 62
     7
370
    30
100
AcDbLine
 10
126.322423
 20
-91.896183
 30
0.0
 11
132.581514
 21
-88.45982
 31
0.0
  0
LINE
  5
116
330
110
100
AcDbEntity
  8
100
  6
Continuous
 62
     7
370
    30
100
AcDbLine
 10
132.581514
 20
-88.45982
 30
0.0
 11
138.840605
 21
-84.40982
 31
0.0
  0
LINE
  5
117
330
110
100
AcDbEntity
  8
100
  6
Continuous
 62
     7
370
    30
100
AcDbLine
 10
138.840605
 20
-84.40982
 30
0.0
 11
145.222423
 21
-78.518911
 31
0.0
  0
LINE
  5
118
330
110
100
AcDbEntity
  8
100
  6
Continuous
 62
     7
370
    30
100
AcDbLine
 10
145.222423
 20
-78.518911
 30
0.0
 11
150.499696
 21
-72.628001
 31
0.0
  0
LINE
  5
119
330
110
100
AcDbEntity
  8
100
  6
Continuous
 62
     7
370
    30
100
AcDbLine
 10
150.499696
 20
-72.628001
 30
0.0
 11
155.163332
 21
-65.878001
 31
0.0
  0
LINE
  5
11A
330
110
100
AcDbEntity
  8
100
  6
Continuous
 62
     7
370
    30
100
AcDbLine
 10
155.163332
 20
-65.878001
 30
0.0
 11
157.372423
 21
-61.582547
 31
0.0
  0
LINE
  5
11B
330
110
100
AcDbEntity
  8
100
  6
Continuous
 62
     7
370
    30
100
AcDbLine
 10
157.372423
 20
-61.582547
 30
0.0
 11
159.458787
 21
-55.691638
 31
0.0
  0
LINE
  5
11C
330
110
100
AcDbEntity
  8
100
  6
Continuous
 62
     7
370
    30
100
AcDbLine
 10
159.458787
 20
-55.691638
 30
0.0
 11
161.299696
 21
-50.168911
 31
0.0
  0
LINE
  5
11D
330
110
100
AcDbEntity
  8
100
  6
Continuous
 62
     7
370
    30
100
AcDbLine
 10
161.299696
 20
-50.168911
 30
0.0
 11
162.772423
 21
-41.700729
 31
0.0
  0
LINE
  5
11E
330
110
100
AcDbEntity
  8
100
  6
Continuous
 62
     7
370
    30
100
AcDbLine
 10
162.772423
 20
-41.700729
 30
0.0
 11
163.876969
 21
-35.564365
 31
0.0
  0
LINE
  5
11F
330
110
100
AcDbEntity
  8
100
  6
Continuous
 62
     7
370
    30
100
AcDbLine
 10
163.876969
 20
-35.564365
 30
0.0
 11
164.367878
 21
-29.550729
 31
0.0
  0
LINE
  5
120
330
110
100
AcDbEntity
  8
100
  6
Continuous
 62
     7
370
    30
100
AcDbLine
 10
164.367878
 20
-29.550729
 30
0.0
 11
164.613332
 21
-19.60982
 31
0.0
  0
LINE
  5
121
330
110
100
AcDbEntity
  8
100
  6
Continuous
 62
     7
370
    30
100
AcDbLine
 10
164.613332
 20
-19.60982
 30
0.0
 11
164.245151
 21
-13.105274
 31
0.0
  0
LINE
  5
122
330
110
100
AcDbEntity
  8
100
  6
Continuous
 62
     7
370
    30
100
AcDbLine
 10
164.245151
 20
-13.105274
 30
0.0
 11
163.999696
 21
-10.15982
 31
0.0
  0
LINE
  5
123
330
110
100
AcDbEntity
  8
100
  6
Continuous
 62
     7
370
    30
100
AcDbLine
 10
163.999696
 20
-10.15982
 30
0.0
 11
166.024696
 21
-13.780274
 31
0.0
  0
LINE
  5
124
330
110
100
AcDbEntity
  8
100
  6
Continuous
 62
     7
370
    30
100
AcDbLine
 10
166.024696
 20
-13.780274
 30
0.0
 11
166.147423
 21
-18.566638
 31
0.0
  0
LINE
  5
125
330
110
100
AcDbEntity
  8
100
  6
Continuous
 62
     7
370
    30
100
AcDbLine
 10
166.147423
 20
-18.566638
 30
0.0
 11
164.530012
 21
-22.984278
 31
0.0
  0
ENDBLK
  5
112
330
110
100
AcDbEntity
  8
0
100
AcDbBlockEnd
  0
BLOCK
  5
128
330
127
100
AcDbEntity
  8
0
100
AcDbBlockBegin
  2
G4
 70
     0
 10
0.0
 20
0.0
 30
0.0
  3
G4
  1

  0
LINE
  5
12A
330
127
100
AcDbEntity
  8
100
  6
Continuous
 62
     7
370
    30
100
AcDbLine
 10
102.881514
 20
-102.941638
 30
0.0
 11
99.445151
 21
-104.046183
 31
0.0
  0
LINE
  5
12B
330
127
100
AcDbEntity
  8
100
  6
Continuous
 62
     7
370
    30
100
AcDbLine
 10
99.445151
 20
-104.046183
 30
0.0
 11
94.781514
 21
-104.782547
 31
0.0
  0
LINE
  5
12C
330
127
100
AcDbEntity
  8
100
  6
Continuous
 62
     7
370
    30
100
AcDbLine
 10
94.781514
 20
-104.782547
 30
0.0
 11
88.399696
 21
-104.168911
 31
0.0
  0
LINE
  5
12D
330
127
100
AcDbEntity
  8
100
  6
Continuous
 62
     7
370
    30
100
AcDbLine
 10
88.399696
 20
-104.168911
 30
0.0
 11
82.508787
 21
-102.450729
 31
0.0
  0
LINE
  5
12E
330
127
100
AcDbEntity
  8
100
  6
Continuous
 62
     7
370
    30
100
AcDbLine
 10
82.508787
 20
-102.450729
 30
0.0
 11
77.354241
 21
-100.118911
 31
0.0
  0
LINE
  5
12F
330
127
100
AcDbEntity
  8
100
  6
Continuous
 62
     7
370
    30
100
AcDbLine
 10
77.354241
 20
-100.118911
 30
0.0
 11
68.88606
 21
-96.068911
 31
0.0
  0
LINE
  5
130
330
127
100
AcDbEntity
  8
100
  6
Continuous
 62
     7
370
    30
100
AcDbLine
 10
68.88606
 20
-96.068911
 30
0.0
 11
61.522423
 21
-91.15982
 31
0.0
  0
LINE
  5
131
330
127
100
AcDbEntity
  8
100
  6
Continuous
 62
     7
370
    30
100
AcDbLine
 10
61.522423
 20
-91.15982
 30
0.0
 11
56.613332
 21
-87.232547
 31
0.0
  0
LINE
  5
132
330
127
100
AcDbEntity
  8
100
  6
Continuous
 62
     7
370
    30
100
AcDbLine
 10
56.613332
 20
-87.232547
 30
0.0
 11
49.495151
 21
-80.35982
 31
0.0
  0
LINE
  5
133
330
127
100
AcDbEntity
  8
100
  6
Continuous
 62
     7
370
    30
100
AcDbLine
 10
49.495151
 20
-80.35982
 30
0.0
 11
45.813332
 21
-75.573456
 31
0.0
  0
LINE
  5
134
330
127
100
AcDbEntity
  8
100
  6
Continuous
 62
     7
370
    30
100
AcDbLine
 10
45.813332
 20
-75.573456
 30
0.0
 11
42.745151
 21
-71.155274
 31
0.0
  0
LINE
  5
135
330
127
100
AcDbEntity
  8
100
  6
Continuous
 62
     7
370
    30
100
AcDbLine
 10
42.745151
 20
-71.155274
 30
0.0
 11
39.554241
 21
-65.387092
 31
0.0
  0
LINE
  5
136
330
127
100
AcDbEntity
  8
100
  6
Continuous
 62
     7
370
    30
100
AcDbLine
 10
39.554241
 20
-65.387092
 30
0.0
 11
36.854241
 21
-59.250729
 31
0.0
  0
LINE
  5
137
330
127
100
AcDbEntity
  8
100
  6
Continuous
 62
     7
370
    30
100
AcDbLine
 10
36.854241
 20
-59.250729
 30
0.0
 11
34.522423
 21
-51.396183
 31
0.0
  0
LINE
  5
138
330
127
100
AcDbEntity
  8
100
  6
Continuous
 62
     7
370
    30
100
AcDbLine
 10
34.522423
 20
-51.396183
 30
0.0
 11
33.417878
 21
-44.400729
 31
0.0
  0
LINE
  5
139
330
127
100
AcDbEntity
  8
100
  6
Continuous
 62
     7
370
    30
100
AcDbLine
 10
33.417878
 20
-44.400729
 30
0.0
 11
32.926969
 21
-37.405274
 31
0.0
  0
LINE
  5
13A
330
127
100
AcDbEntity
  8
100
  6
Continuous
 62
     7
370
    30
100
AcDbLine
 10
32.926969
 20
-37.405274
 30
0.0
 11
32.43606
 21
-27.341638
 31
0.0
  0
LINE
  5
13B
330
127
100
AcDbEntity
  8
100
  6
Continuous
 62
     7
370
    30
100
AcDbLine
 10
32.43606
 20
-27.341638
 30
0.0
 11
31.576969
 21
-17.400729
 31
0.0
  0
LINE
  5
13C
330
127
100
AcDbEntity
  8
100
  6
Continuous
 62
     7
370
    30
100
AcDbLine
 10
31.576969
 20
-17.400729
 30
0.0
 11
33.78606
 21
-17.155274
 31
0.0
  0
LINE
  5
13D
330
127
100
AcDbEntity
  8
100
  6
Continuous
 62
     7
370
    30
100
AcDbLine
 10
33.78606
 20
-17.155274
 30
0.0
 11
36.854241
 21
-16.787092
 31
0.0
  0
LINE
  5
13E
330
127
100
AcDbEntity
  8
100
  6
Continuous
 62
     7
370
    30
100
AcDbLine
 10
36.854241
 20
-16.787092
 30
0.0
 11
39.431514
 21
-17.032547
 31
0.0
  0
LINE
  5
13F
330
127
100
AcDbEntity
  8
100
  6
Continuous
 62
     7
370
    30
100
AcDbLine
 10
39.431514
 20
-17.032547
 30
0.0
 11
39.431514
 21
-18.996183
 31
0.0
  0
LINE
  5
140
330
127
100
AcDbEntity
  8
100
  6
Continuous
 62
     7
370
    30
100
AcDbLine
 10
39.431514
 20
-18.996183
 30
0.0
 11
40.53606
 21
-21.328001
 31
0.0
  0
LINE
  5
141
330
127
100
AcDbEntity
  8
100
  6
Continuous
 62
     7
370
    30
100
AcDbLine
 10
40.53606
 20
-21.328001
 30
0.0
 11
40.413332
 21
-24.518911
 31
0.0
  0
LINE
  5
142
330
127
100
AcDbEntity
  8
100
  6
Continuous
 62
     7
370
    30
100
AcDbLine
 10
40.413332
 20
-24.518911
 30
0.0
 11
39.18606
 21
-24.887092
 31
0.0
  0
LINE
  5
143
330
127
100
AcDbEntity
  8
100
  6
Continuous
 62
     7
370
    30
100
AcDbLine
 10
39.18606
 20
-24.887092
 30
0.0
 11
39.063332
 21
-35.687092
 31
0.0
  0
LINE
  5
144
330
127
100
AcDbEntity
  8
100
  6
Continuous
 62
     7
370
    30
100
AcDbLine
 10
39.063332
 20
-35.687092
 30
0.0
 11
39.18606
 21
-44.155274
 31
0.0
  0
LINE
  5
145
330
127
100
AcDbEntity
  8
100
  6
Continuous
 62
     7
370
    30
100
AcDbLine
 10
39.18606
 20
-44.155274
 30
0.0
 11
40.413332
 21
-51.396183
 31
0.0
  0
LINE
  5
146
330
127
100
AcDbEntity
  8
100
  6
Continuous
 62
     7
370
    30
100
AcDbLine
 10
40.413332
 20
-51.396183
 30
0.0
 11
42.622423
 21
-58.023456
 31
0.0
  0
LINE
  5
147
330
127
100
AcDbEntity
  8
100
  6
Continuous
 62
     7
370
    30
100
AcDbLine
 10
42.622423
 20
-58.023456
 30
0.0
 11
45.690605
 21
-64.405274
 31
0.0
  0
LINE
  5
148
330
127
100
AcDbEntity
  8
100
  6
Continuous
 62
     7
370
    30
100
AcDbLine
 10
45.690605
 20
-64.405274
 30
0.0
 11
48.758787
 21
-70.050729
 31
0.0
  0
LINE
  5
149
330
127
100
AcDbEntity
  8
100
  6
Continuous
 62
     7
370
    30
100
AcDbLine
 10
48.758787
 20
-70.050729
 30
0.0
 11
54.03606
 21
-76.800729
 31
0.0
  0
LINE
  5
14A
330
127
100
AcDbEntity
  8
100
  6
Continuous
 62
     7
370
    30
100
AcDbLine
 10
54.03606
 20
-76.800729
 30
0.0
 11
59.43606
 21
-82.323456
 31
0.0
  0
LINE
  5
14B
330
127
100
AcDbEntity
  8
100
  6
Continuous
 62
     7
370
    30
100
AcDbLine
 10
59.43606
 20
-82.323456
 30
0.0
 11
66.554241
 21
-88.091638
 31
0.0
  0
LINE
  5
14C
330
127
100
AcDbEntity
  8
100
  6
Continuous
 62
     7
370
    30
100
AcDbLine
 10
66.554241
 20
-88.091638
 30
0.0
 11
75.513332
 21
-93.368911
 31
0.0
  0
LINE
  5
14D
330
127
100
AcDbEntity
  8
100
  6
Continuous
 62
     7
370
    30
100
AcDbLine
 10
75.513332
 20
-93.368911
 30
0.0
 11
83.367878
 21
-96.437092
 31
0.0
  0
LINE
  5
14E
330
127
100
AcDbEntity
  8
100
  6
Continuous
 62
     7
370
    30
100
AcDbLine
 10
83.367878
 20
-96.437092
 30
0.0
 11
89.626969
 21
-98.646183
 31
0.0
  0
LINE
  5
14F
330
127
100
AcDbEntity
  8
100
  6
Continuous
 62
     7
370
    30
100
AcDbLine
 10
89.626969
 20
-98.646183
 30
0.0
 11
94.658787
 21
-99.014365
 31
0.0
  0
LINE
  5
150
330
127
100
AcDbEntity
  8
100
  6
Continuous
 62
     7
370
    30
100
AcDbLine
 10
94.658787
 20
-99.014365
 30
0.0
 11
97.972423
 21
-98.523456
 31
0.0
  0
LINE
  5
151
330
127
100
AcDbEntity
  8
100
  6
Continuous
 62
     7
370
    30
100
AcDbLine
 10
97.972423
 20
-98.523456
 30
0.0
 11
102.022423
 21
-97.050729
 31
0.0
  0
LINE
  5
152
330
127
100
AcDbEntity
  8
100
  6
Continuous
 62
     7
370
    30
100
AcDbLine
 10
102.022423
 20
-97.050729
 30
0.0
 11
105.213332
 21
-96.068911
 31
0.0
  0
LINE
  5
153
330
127
100
AcDbEntity
  8
100
  6
Continuous
 62
     7
370
    30
100
AcDbLine
 10
105.213332
 20
-96.068911
 30
0.0
 11
99.076969
 21
-96.437092
 31
0.0
  0
LINE
  5
154
330
127
100
AcDbEntity
  8
100
  6
Continuous
 62
     7
370
    30
100
AcDbLine
 10
99.076969
 20
-96.437092
 30
0.0
 11
93.18606
 21
-96.191638
 31
0.0
  0
LINE
  5
155
330
127
100
AcDbEntity
  8
100
  6
Continuous
 62
     7
370
    30
100
AcDbLine
 10
93.18606
 20
-96.191638
 30
0.0
 11
85.08606
 21
-94.473456
 31
0.0
  0
LINE
  5
156
330
127
100
AcDbEntity
  8
100
  6
Continuous
 62
     7
370
    30
100
AcDbLine
 10
85.08606
 20
-94.473456
 30
0.0
 11
78.826969
 21
-91.896183
 31
0.0
  0
LINE
  5
157
330
127
100
AcDbEntity
  8
100
  6
Continuous
 62
     7
370
    30
100
AcDbLine
 10
78.826969
 20
-91.896183
 30
0.0
 11
71.954241
 21
-88.705274
 31
0.0
  0
LINE
  5
158
330
127
100
AcDbEntity
  8
100
  6
Continuous
 62
     7
370
    30
100
AcDbLine
 10
71.954241
 20
-88.705274
 30
0.0
 11
65.695151
 21
-84.40982
 31
0.0
  0
LINE
  5
159
330
127
100
AcDbEntity
  8
100
  6
Continuous
 62
     7
370
    30
100
AcDbLine
 10
65.695151
 20
-84.40982
 30
0.0
 11
60.908787
 21
-79.991638
 31
0.0
  0
LINE
  5
15A
330
127
100
AcDbEntity
  8
100
  6
Continuous
 62
     7
370
    30
100
AcDbLine
 10
60.908787
 20
-79.991638
 30
0.0
 11
56.981514
 21
-75.818911
 31
0.0
  0
LINE
  5
15B
330
127
100
AcDbEntity
  8
100
  6
Continuous
 62
     7
370
    30
100
AcDbLine
 10
56.981514
 20
-75.818911
 30
0.0
 11
53.422423
 21
-71.155274
 31
0.0
  0
LINE
  5
15C
330
127
100
AcDbEntity
  8
100
  6
Continuous
 62
     7
370
    30
100
AcDbLine
 10
53.422423
 20
-71.155274
 30
0.0
 11
50.845151
 21
-67.350729
 31
0.0
  0
LINE
  5
15D
330
127
100
AcDbEntity
  8
100
  6
Continuous
 62
     7
370
    30
100
AcDbLine
 10
50.845151
 20
-67.350729
 30
0.0
 11
48.513332
 21
-62.441638
 31
0.0
  0
LINE
  5
15E
330
127
100
AcDbEntity
  8
100
  6
Continuous
 62
     7
370
    30
100
AcDbLine
 10
48.513332
 20
-62.441638
 30
0.0
 11
44.340605
 21
-52.132547
 31
0.0
  0
LINE
  5
15F
330
127
100
AcDbEntity
  8
100
  6
Continuous
 62
     7
370
    30
100
AcDbLine
 10
44.340605
 20
-52.132547
 30
0.0
 11
42.745151
 21
-44.768911
 31
0.0
  0
LINE
  5
160
330
127
100
AcDbEntity
  8
100
  6
Continuous
 62
     7
370
    30
100
AcDbLine
 10
42.745151
 20
-44.768911
 30
0.0
 11
42.376969
 21
-37.15982
 31
0.0
  0
LINE
  5
161
330
127
100
AcDbEntity
  8
100
  6
Continuous
 62
     7
370
    30
100
AcDbLine
 10
42.376969
 20
-37.15982
 30
0.0
 11
42.254241
 21
-16.418911
 31
0.0
  0
LINE
  5
162
330
127
100
AcDbEntity
  8
100
  6
Continuous
 62
     7
370
    30
100
AcDbLine
 10
42.254241
 20
-16.418911
 30
0.0
 11
44.401969
 21
-11.571183
 31
0.0
  0
LINE
  5
163
330
127
100
AcDbEntity
  8
100
  6
Continuous
 62
     7
370
    30
100
AcDbLine
 10
44.401969
 20
-11.571183
 30
0.0
 11
47.347423
 21
-7.643911
 31
0.0
  0
LINE
  5
164
330
127
100
AcDbEntity
  8
100
  6
Continuous
 62
     7
370
    30
100
AcDbLine
 10
47.347423
 20
-7.643911
 30
0.0
 11
52.870151
 21
-3.103001
 31
0.0
  0
LINE
  5
165
330
127
100
AcDbEntity
  8
100
  6
Continuous
 62
     7
370
    30
100
AcDbLine
 10
52.870151
 20
-3.103001
 30
0.0
 11
61.338332
 21
1.437908
 31
0.0
  0
LINE
  5
166
330
127
100
AcDbEntity
  8
100
  6
Continuous
 62
     7
370
    30
100
AcDbLine
 10
61.338332
 20
1.437908
 30
0.0
 11
74.101969
 21
5.242453
 31
0.0
  0
LINE
  5
167
330
127
100
AcDbEntity
  8
100
  6
Continuous
 62
     7
370
    30
100
AcDbLine
 10
74.101969
 20
5.242453
 30
0.0
 11
83.920151
 21
7.328817
 31
0.0
  0
LINE
  5
168
330
127
100
AcDbEntity
  8
100
  6
Continuous
 62
     7
370
    30
100
AcDbLine
 10
83.920151
 20
7.328817
 30
0.0
 11
89.442878
 21
8.310635
 31
0.0
  0
LINE
  5
169
330
127
100
AcDbEntity
  8
100
  6
Continuous
 62
     7
370
    30
100
AcDbLine
 10
89.442878
 20
8.310635
 30
0.0
 11
96.683787
 21
9.046999
 31
0.0
  0
LINE
  5
16A
330
127
100
AcDbEntity
  8
100
  6
Continuous
 62
     7
370
    30
100
AcDbLine
 10
96.683787
 20
9.046999
 30
0.0
 11
103.801969
 21
9.169726
 31
0.0
  0
LINE
  5
16B
330
127
100
AcDbEntity
  8
100
  6
Continuous
 62
     7
370
    30
100
AcDbLine
 10
103.801969
 20
9.169726
 30
0.0
 11
112.149862
 21
9.300745
 31
0.0
  0
ENDBLK
  5
129
330
127
100
AcDbEntity
  8
0
100
AcDbBlockEnd
  0
BLOCK
  5
16E
330
16D
100
AcDbEntity
  8
0
100
AcDbBlockBegin
  2
G5
 70
     0
 10
0.0
 20
0.0
 30
0.0
  3
G5
  1

  0
LINE
  5
170
330
16D
100
AcDbEntity
  8
100
  6
Continuous
 62
     7
370
    30
100
AcDbLine
 10
99.445151
 20
-104.046183
 30
0.0
 11
100.61106
 21
-104.65982
 31
0.0
  0
LINE
  5
171
330
16D
100
AcDbEntity
  8
100
  6
Continuous
 62
     7
370
    30
100
AcDbLine
 10
100.61106
 20
-104.65982
 30
0.0
 11
101.592878
 21
-104.107547
 31
0.0
  0
LINE
  5
172
330
16D
100
AcDbEntity
  8
100
  6
Continuous
 62
     7
370
    30
100
AcDbLine
 10
101.592878
 20
-104.107547
 30
0.0
 11
102.881514
 21
-102.941638
 31
0.0
  0
LINE
  5
173
330
16D
100
AcDbEntity
  8
100
  6
Continuous
 62
     7
370
    30
100
AcDbLine
 10
102.881514
 20
-102.941638
 30
0.0
 11
104.047423
 21
-101.530274
 31
0.0
  0
LINE
  5
174
330
16D
100
AcDbEntity
  8
100
  6
Continuous
 62
     7
370
    30
100
AcDbLine
 10
104.047423
 20
-101.530274
 30
0.0
 11
105.458787
 21
-97.603001
 31
0.0
  0
LINE
  5
175
330
16D
100
AcDbEntity
  8
100
  6
Continuous
 62
     7
370
    30
100
AcDbLine
 10
105.458787
 20
-97.603001
 30
0.0
 11
106.317878
 21
-94.412092
 31
0.0
  0
LINE
  5
176
330
16D
100
AcDbEntity
  8
100
  6
Continuous
 62
     7
370
    30
100
AcDbLine
 10
106.317878
 20
-94.412092
 30
0.0
 11
107.238332
 21
-89.318911
 31
0.0
  0
LINE
  5
177
330
16D
100
AcDbEntity
  8
100
  6
Continuous
 62
     7
370
    30
100
AcDbLine
 10
107.238332
 20
-89.318911
 30
0.0
 11
108.588332
 21
-82.200729
 31
0.0
  0
LINE
  5
178
330
16D
100
AcDbEntity
  8
100
  6
Continuous
 62
     7
370
    30
100
AcDbLine
 10
108.588332
 20
-82.200729
 30
0.0
 11
109.447423
 21
-76.125729
 31
0.0
  0
LINE
  5
179
330
16D
100
AcDbEntity
  8
100
  6
Continuous
 62
     7
370
    30
100
AcDbLine
 10
109.447423
 20
-76.125729
 30
0.0
 11
110.306514
 21
-69.55982
 31
0.0
  0
LINE
  5
17A
330
16D
100
AcDbEntity
  8
100
  6
Continuous
 62
     7
370
    30
100
AcDbLine
 10
110.306514
 20
-69.55982
 30
0.0
 11
111.104241
 21
-62.564365
 31
0.0
  0
LINE
  5
17B
330
16D
100
AcDbEntity
  8
100
  6
Continuous
 62
     7
370
    30
100
AcDbLine
 10
111.104241
 20
-62.564365
 30
0.0
 11
111.840605
 21
-52.500729
 31
0.0
  0
LINE
  5
17C
330
16D
100
AcDbEntity
  8
100
  6
Continuous
 62
     7
370
    30
100
AcDbLine
 10
111.840605
 20
-52.500729
 30
0.0
 11
112.331514
 21
-45.996183
 31
0.0
  0
LINE
  5
17D
330
16D
100
AcDbEntity
  8
100
  6
Continuous
 62
     7
370
    30
100
AcDbLine
 10
112.331514
 20
-45.996183
 30
0.0
 11
112.576969
 21
-36.178001
 31
0.0
  0
LINE
  5
17E
330
16D
100
AcDbEntity
  8
100
  6
Continuous
 62
     7
370
    30
100
AcDbLine
 10
112.576969
 20
-36.178001
 30
0.0
 11
112.76106
 21
-24.641638
 31
0.0
  0
LINE
  5
17F
330
16D
100
AcDbEntity
  8
100
  6
Continuous
 62
     7
370
    30
100
AcDbLine
 10
112.76106
 20
-24.641638
 30
0.0
 11
112.392878
 21
-15.375729
 31
0.0
  0
LINE
  5
180
330
16D
100
AcDbEntity
  8
100
  6
Continuous
 62
     7
370
    30
100
AcDbLine
 10
112.392878
 20
-15.375729
 30
0.0
 11
112.331514
 21
-1.507547
 31
0.0
  0
LINE
  5
181
330
16D
100
AcDbEntity
  8
100
  6
Continuous
 62
     7
370
    30
100
AcDbLine
 10
112.331514
 20
-1.507547
 30
0.0
 11
112.08606
 21
13.096999
 31
0.0
  0
LINE
  5
182
330
16D
100
AcDbEntity
  8
100
  6
Continuous
 62
     7
370
    30
100
AcDbLine
 10
112.08606
 20
13.096999
 30
0.0
 11
112.576969
 21
13.771999
 31
0.0
  0
LINE
  5
183
330
16D
100
AcDbEntity
  8
100
  6
Continuous
 62
     7
370
    30
100
AcDbLine
 10
112.576969
 20
13.771999
 30
0.0
 11
113.926969
 21
14.262908
 31
0.0
  0
LINE
  5
184
330
16D
100
AcDbEntity
  8
100
  6
Continuous
 62
     7
370
    30
100
AcDbLine
 10
113.926969
 20
14.262908
 30
0.0
 11
115.706514
 21
14.569726
 31
0.0
  0
LINE
  5
185
330
16D
100
AcDbEntity
  8
100
  6
Continuous
 62
     7
370
    30
100
AcDbLine
 10
115.706514
 20
14.569726
 30
0.0
 11
116.872423
 21
14.569726
 31
0.0
  0
LINE
  5
186
330
16D
100
AcDbEntity
  8
100
  6
Continuous
 62
     7
370
    30
100
AcDbLine
 10
116.872423
 20
14.569726
 30
0.0
 11
117.854241
 21
14.446999
 31
0.0
  0
LINE
  5
187
330
16D
100
AcDbEntity
  8
100
  6
Continuous
 62
     7
370
    30
100
AcDbLine
 10
117.854241
 20
14.446999
 30
0.0
 11
119.633787
 21
13.587908
 31
0.0
  0
LINE
  5
188
330
16D
100
AcDbEntity
  8
100
  6
Continuous
 62
     7
370
    30
100
AcDbLine
 10
119.633787
 20
13.587908
 30
0.0
 11
120.124696
 21
12.360635
 31
0.0
  0
LINE
  5
189
330
16D
100
AcDbEntity
  8
100
  6
Continuous
 62
     7
370
    30
100
AcDbLine
 10
120.124696
 20
12.360635
 30
0.0
 11
120.247423
 21
9.660635
 31
0.0
  0
LINE
  5
18A
330
16D
100
AcDbEntity
  8
100
  6
Continuous
 62
     7
370
    30
100
AcDbLine
 10
120.247423
 20
9.660635
 30
0.0
 11
120.247423
 21
-0.157547
 31
0.0
  0
LINE
  5
18B
330
16D
100
AcDbEntity
  8
100
  6
Continuous
 62
     7
370
    30
100
AcDbLine
 10
120.247423
 20
-0.157547
 30
0.0
 11
120.370151
 21
-15.191638
 31
0.0
  0
LINE
  5
18C
330
16D
100
AcDbEntity
  8
100
  6
Continuous
 62
     7
370
    30
100
AcDbLine
 10
120.370151
 20
-15.191638
 30
0.0
 11
120.308787
 21
-28.691638
 31
0.0
  0
LINE
  5
18D
330
16D
100
AcDbEntity
  8
100
  6
Continuous
 62
     7
370
    30
100
AcDbLine
 10
120.308787
 20
-28.691638
 30
0.0
 11
119.817878
 21
-44.58482
 31
0.0
  0
LINE
  5
18E
330
16D
100
AcDbEntity
  8
100
  6
Continuous
 62
     7
370
    30
100
AcDbLine
 10
119.817878
 20
-44.58482
 30
0.0
 11
119.204241
 21
-53.543911
 31
0.0
  0
LINE
  5
18F
330
16D
100
AcDbEntity
  8
100
  6
Continuous
 62
     7
370
    30
100
AcDbLine
 10
119.204241
 20
-53.543911
 30
0.0
 11
117.976969
 21
-63.300729
 31
0.0
  0
LINE
  5
190
330
16D
100
AcDbEntity
  8
100
  6
Continuous
 62
     7
370
    30
100
AcDbLine
 10
117.976969
 20
-63.300729
 30
0.0
 11
117.301969
 21
-71.339365
 31
0.0
  0
LINE
  5
191
330
16D
100
AcDbEntity
  8
100
  6
Continuous
 62
     7
370
    30
100
AcDbLine
 10
117.301969
 20
-71.339365
 30
0.0
 11
115.951969
 21
-79.500729
 31
0.0
  0
LINE
  5
192
330
16D
100
AcDbEntity
  8
100
  6
Continuous
 62
     7
370
    30
100
AcDbLine
 10
115.951969
 20
-79.500729
 30
0.0
 11
114.295151
 21
-88.091638
 31
0.0
  0
LINE
  5
193
330
16D
100
AcDbEntity
  8
100
  6
Continuous
 62
     7
370
    30
100
AcDbLine
 10
114.295151
 20
-88.091638
 30
0.0
 11
111.840605
 21
-95.393911
 31
0.0
  0
LINE
  5
194
330
16D
100
AcDbEntity
  8
100
  6
Continuous
 62
     7
370
    30
100
AcDbLine
 10
111.840605
 20
-95.393911
 30
0.0
 11
110.797423
 21
-99.505274
 31
0.0
  0
LINE
  5
195
330
16D
100
AcDbEntity
  8
100
  6
Continuous
 62
     7
370
    30
100
AcDbLine
 10
110.797423
 20
-99.505274
 30
0.0
 11
109.754241
 21
-102.941638
 31
0.0
  0
LINE
  5
196
330
16D
100
AcDbEntity
  8
100
  6
Continuous
 62
     7
370
    30
100
AcDbLine
 10
109.754241
 20
-102.941638
 30
0.0
 11
108.342878
 21
-105.580274
 31
0.0
  0
LINE
  5
197
330
16D
100
AcDbEntity
  8
100
  6
Continuous
 62
     7
370
    30
100
AcDbLine
 10
108.342878
 20
-105.580274
 30
0.0
 11
106.440605
 21
-107.605274
 31
0.0
  0
LINE
  5
198
330
16D
100
AcDbEntity
  8
100
  6
Continuous
 62
     7
370
    30
100
AcDbLine
 10
106.440605
 20
-107.605274
 30
0.0
 11
104.722423
 21
-109.139365
 31
0.0
  0
LINE
  5
199
330
16D
100
AcDbEntity
  8
100
  6
Continuous
 62
     7
370
    30
100
AcDbLine
 10
104.722423
 20
-109.139365
 30
0.0
 11
102.63606
 21
-110.073456
 31
0.0
  0
LINE
  5
19A
330
16D
100
AcDbEntity
  8
100
  6
Continuous
 62
     7
370
    30
100
AcDbLine
 10
102.63606
 20
-110.073456
 30
0.0
 11
100.426969
 21
-110.073456
 31
0.0
  0
LINE
  5
19B
330
16D
100
AcDbEntity
  8
100
  6
Continuous
 62
     7
370
    30
100
AcDbLine
 10
100.426969
 20
-110.073456
 30
0.0
 11
99.199696
 21
-108.955274
 31
0.0
  0
LINE
  5
19C
330
16D
100
AcDbEntity
  8
100
  6
Continuous
 62
     7
370
    30
100
AcDbLine
 10
99.199696
 20
-108.955274
 30
0.0
 11
97.665605
 21
-107.482547
 31
0.0
  0
LINE
  5
19D
330
16D
100
AcDbEntity
  8
100
  6
Continuous
 62
     7
370
    30
100
AcDbLine
 10
97.665605
 20
-107.482547
 30
0.0
 11
96.376969
 21
-106.255274
 31
0.0
  0
LINE
  5
19E
330
16D
100
AcDbEntity
  8
100
  6
Continuous
 62
     7
370
    30
100
AcDbLine
 10
96.376969
 20
-106.255274
 30
0.0
 11
96.038805
 21
-104.584027
 31
0.0
  0
ENDBLK
  5
16F
330
16D
100
AcDbEntity
  8
0
100
AcDbBlockEnd
  0
BLOCK
  5
1A1
330
1A0
100
AcDbEntity
  8
0
100
AcDbBlockBegin
  2
G6
 70
     0
 10
0.0
 20
0.0
 30
0.0
  3
G6
  1

  0
LINE
  5
1A3
330
1A0
100
AcDbEntity
  8
100
  6
Continuous
 62
     7
370
    30
100
AcDbLine
 10
163.999696
 20
-10.15982
 30
0.0
 11
159.765605
 21
-4.575729
 31
0.0
  0
LINE
  5
1A4
330
1A0
100
AcDbEntity
  8
100
  6
Continuous
 62
     7
370
    30
100
AcDbLine
 10
159.765605
 20
-4.575729
 30
0.0
 11
153.015605
 21
-0.157547
 31
0.0
  0
LINE
  5
1A5
330
1A0
100
AcDbEntity
  8
100
  6
Continuous
 62
     7
370
    30
100
AcDbLine
 10
153.015605
 20
-0.157547
 30
0.0
 11
145.038332
 21
3.769726
 31
0.0
  0
LINE
  5
1A6
330
1A0
100
AcDbEntity
  8
100
  6
Continuous
 62
     7
370
    30
100
AcDbLine
 10
145.038332
 20
3.769726
 30
0.0
 11
136.570151
 21
6.224271
 31
0.0
  0
LINE
  5
1A7
330
1A0
100
AcDbEntity
  8
100
  6
Continuous
 62
     7
370
    30
100
AcDbLine
 10
136.570151
 20
6.224271
 30
0.0
 11
129.574696
 21
7.451544
 31
0.0
  0
LINE
  5
1A8
330
1A0
100
AcDbEntity
  8
100
  6
Continuous
 62
     7
370
    30
100
AcDbLine
 10
129.574696
 20
7.451544
 30
0.0
 11
120.247423
 21
8.556089
 31
0.0
  0
ENDBLK
  5
1A2
330
1A0
100
AcDbEntity
  8
0
100
AcDbBlockEnd
  0
BLOCK
  5
1AB
330
1AA
100
AcDbEntity
  8
0
100
AcDbBlockBegin
  2
G7
 70
     0
 10
0.0
 20
0.0
 30
0.0
  3
G7
  1

  0
LINE
  5
1AD
330
1AA
100
AcDbEntity
  8
100
  6
Continuous
 62
     7
370
    30
100
AcDbLine
 10
42.254241
 20
-16.418911
 30
0.0
 11
41.471855
 21
-19.118911
 31
0.0
  0
LINE
  5
1AE
330
1AA
100
AcDbEntity
  8
100
  6
Continuous
 62
     7
370
    30
100
AcDbLine
 10
41.471855
 20
-19.118911
 30
0.0
 11
41.533219
 21
-20.714365
 31
0.0
  0
LINE
  5
1AF
330
1AA
100
AcDbEntity
  8
100
  6
Continuous
 62
     7
370
    30
100
AcDbLine
 10
41.533219
 20
-20.714365
 30
0.0
 11
42.287639
 21
-22.063169
 31
0.0
  0
ENDBLK
  5
1AC
330
1AA
100
AcDbEntity
  8
0
100
AcDbBlockEnd
  0
BLOCK
  5
1B2
330
1B1
100
AcDbEntity
  8
0
100
AcDbBlockBegin
  2
G8
 70
     0
 10
0.0
 20
0.0
 30
0.0
  3
G8
  1

  0
LINE
  5
1B4
330
1B1
100
AcDbEntity
  8
100
  6
Continuous
 62
     7
370
    30
100
AcDbLine
 10
32.390424
 20
-26.813574
 30
0.0
 11
29.996855
 21
-24.150729
 31
0.0
  0
LINE
  5
1B5
330
1B1
100
AcDbEntity
  8
100
  6
Continuous
 62
     7
370
    30
100
AcDbLine
 10
29.996855
 20
-24.150729
 30
0.0
 11
28.953673
 21
-19.978001
 31
0.0
  0
LINE
  5
1B6
330
1B1
100
AcDbEntity
  8
100
  6
Continuous
 62
     7
370
    30
100
AcDbLine
 10
28.953673
 20
-19.978001
 30
0.0
 11
28.89231
 21
-15.928001
 31
0.0
  0
LINE
  5
1B7
330
1B1
100
AcDbEntity
  8
100
  6
Continuous
 62
     7
370
    30
100
AcDbLine
 10
28.89231
 20
-15.928001
 30
0.0
 11
29.628673
 21
-12.307547
 31
0.0
  0
LINE
  5
1B8
330
1B1
100
AcDbEntity
  8
100
  6
Continuous
 62
     7
370
    30
100
AcDbLine
 10
29.628673
 20
-12.307547
 30
0.0
 11
30.855946
 21
-8.871183
 31
0.0
  0
LINE
  5
1B9
330
1B1
100
AcDbEntity
  8
100
  6
Continuous
 62
     7
370
    30
100
AcDbLine
 10
30.855946
 20
-8.871183
 30
0.0
 11
33.740037
 21
-3.40982
 31
0.0
  0
LINE
  5
1BA
330
1B1
100
AcDbEntity
  8
100
  6
Continuous
 62
     7
370
    30
100
AcDbLine
 10
33.740037
 20
-3.40982
 30
0.0
 11
36.624128
 21
-0.464365
 31
0.0
  0
LINE
  5
1BB
330
1B1
100
AcDbEntity
  8
100
  6
Continuous
 62
     7
370
    30
100
AcDbLine
 10
36.624128
 20
-0.464365
 30
0.0
 11
38.771855
 21
1.192453
 31
0.0
  0
LINE
  5
1BC
330
1B1
100
AcDbEntity
  8
100
  6
Continuous
 62
     7
370
    30
100
AcDbLine
 10
38.771855
 20
1.192453
 30
0.0
 11
41.778673
 21
3.953817
 31
0.0
  0
LINE
  5
1BD
330
1B1
100
AcDbEntity
  8
100
  6
Continuous
 62
     7
370
    30
100
AcDbLine
 10
41.778673
 20
3.953817
 30
0.0
 11
47.546855
 21
7.206089
 31
0.0
  0
LINE
  5
1BE
330
1B1
100
AcDbEntity
  8
100
  6
Continuous
 62
     7
370
    30
100
AcDbLine
 10
47.546855
 20
7.206089
 30
0.0
 11
54.296855
 21
10.396999
 31
0.0
  0
LINE
  5
1BF
330
1B1
100
AcDbEntity
  8
100
  6
Continuous
 62
     7
370
    30
100
AcDbLine
 10
54.296855
 20
10.396999
 30
0.0
 11
62.274128
 21
13.403817
 31
0.0
  0
LINE
  5
1C0
330
1B1
100
AcDbEntity
  8
100
  6
Continuous
 62
     7
370
    30
100
AcDbLine
 10
62.274128
 20
13.403817
 30
0.0
 11
71.540037
 21
15.981089
 31
0.0
  0
LINE
  5
1C1
330
1B1
100
AcDbEntity
  8
100
  6
Continuous
 62
     7
370
    30
100
AcDbLine
 10
71.540037
 20
15.981089
 30
0.0
 11
80.499128
 21
17.699271
 31
0.0
  0
LINE
  5
1C2
330
1B1
100
AcDbEntity
  8
100
  6
Continuous
 62
     7
370
    30
100
AcDbLine
 10
80.499128
 20
17.699271
 30
0.0
 11
89.335491
 21
18.86518
 31
0.0
  0
LINE
  5
1C3
330
1B1
100
AcDbEntity
  8
100
  6
Continuous
 62
     7
370
    30
100
AcDbLine
 10
89.335491
 20
18.86518
 30
0.0
 11
99.460491
 21
20.031089
 31
0.0
  0
LINE
  5
1C4
330
1B1
100
AcDbEntity
  8
100
  6
Continuous
 62
     7
370
    30
100
AcDbLine
 10
99.460491
 20
20.031089
 30
0.0
 11
108.910491
 21
20.399271
 31
0.0
  0
LINE
  5
1C5
330
1B1
100
AcDbEntity
  8
100
  6
Continuous
 62
     7
370
    30
100
AcDbLine
 10
108.910491
 20
20.399271
 30
0.0
 11
121.305946
 21
19.785635
 31
0.0
  0
LINE
  5
1C6
330
1B1
100
AcDbEntity
  8
100
  6
Continuous
 62
     7
370
    30
100
AcDbLine
 10
121.305946
 20
19.785635
 30
0.0
 11
131.001401
 21
18.681089
 31
0.0
  0
LINE
  5
1C7
330
1B1
100
AcDbEntity
  8
100
  6
Continuous
 62
     7
370
    30
100
AcDbLine
 10
131.001401
 20
18.681089
 30
0.0
 11
141.065037
 21
16.778817
 31
0.0
  0
LINE
  5
1C8
330
1B1
100
AcDbEntity
  8
100
  6
Continuous
 62
     7
370
    30
100
AcDbLine
 10
141.065037
 20
16.778817
 30
0.0
 11
149.165037
 21
14.508362
 31
0.0
  0
LINE
  5
1C9
330
1B1
100
AcDbEntity
  8
100
  6
Continuous
 62
     7
370
    30
100
AcDbLine
 10
149.165037
 20
14.508362
 30
0.0
 11
156.099128
 21
11.44018
 31
0.0
  0
LINE
  5
1CA
330
1B1
100
AcDbEntity
  8
100
  6
Continuous
 62
     7
370
    30
100
AcDbLine
 10
156.099128
 20
11.44018
 30
0.0
 11
161.437764
 21
8.985635
 31
0.0
  0
LINE
  5
1CB
330
1B1
100
AcDbEntity
  8
100
  6
Continuous
 62
     7
370
    30
100
AcDbLine
 10
161.437764
 20
8.985635
 30
0.0
 11
166.899128
 21
4.935635
 31
0.0
  0
LINE
  5
1CC
330
1B1
100
AcDbEntity
  8
100
  6
Continuous
 62
     7
370
    30
100
AcDbLine
 10
166.899128
 20
4.935635
 30
0.0
 11
171.562764
 21
1.008362
 31
0.0
  0
LINE
  5
1CD
330
1B1
100
AcDbEntity
  8
100
  6
Continuous
 62
     7
370
    30
100
AcDbLine
 10
171.562764
 20
1.008362
 30
0.0
 11
174.937764
 21
-2.673456
 31
0.0
  0
LINE
  5
1CE
330
1B1
100
AcDbEntity
  8
100
  6
Continuous
 62
     7
370
    30
100
AcDbLine
 10
174.937764
 20
-2.673456
 30
0.0
 11
177.515037
 21
-9.116638
 31
0.0
  0
LINE
  5
1CF
330
1B1
100
AcDbEntity
  8
100
  6
Continuous
 62
     7
370
    30
100
AcDbLine
 10
177.515037
 20
-9.116638
 30
0.0
 11
178.374128
 21
-12.982547
 31
0.0
  0
LINE
  5
1D0
330
1B1
100
AcDbEntity
  8
100
  6
Continuous
 62
     7
370
    30
100
AcDbLine
 10
178.374128
 20
-12.982547
 30
0.0
 11
178.619582
 21
-17.032547
 31
0.0
  0
LINE
  5
1D1
330
1B1
100
AcDbEntity
  8
100
  6
Continuous
 62
     7
370
    30
100
AcDbLine
 10
178.619582
 20
-17.032547
 30
0.0
 11
177.821855
 21
-21.205274
 31
0.0
  0
LINE
  5
1D2
330
1B1
100
AcDbEntity
  8
100
  6
Continuous
 62
     7
370
    30
100
AcDbLine
 10
177.821855
 20
-21.205274
 30
0.0
 11
176.165037
 21
-24.028001
 31
0.0
  0
LINE
  5
1D3
330
1B1
100
AcDbEntity
  8
100
  6
Continuous
 62
     7
370
    30
100
AcDbLine
 10
176.165037
 20
-24.028001
 30
0.0
 11
173.955946
 21
-26.543911
 31
0.0
  0
LINE
  5
1D4
330
1B1
100
AcDbEntity
  8
100
  6
Continuous
 62
     7
370
    30
100
AcDbLine
 10
173.955946
 20
-26.543911
 30
0.0
 11
171.610234
 21
-29.011192
 31
0.0
  0
ENDBLK
  5
1B3
330
1B1
100
AcDbEntity
  8
0
100
AcDbBlockEnd
  0
BLOCK
  5
1D7
330
1D6
100
AcDbEntity
  8
0
100
AcDbBlockBegin
  2
G9
 70
     0
 10
0.0
 20
0.0
 30
0.0
  3
G9
  1

  0
LINE
  5
1D9
330
1D6
100
AcDbEntity
  8
100
  6
Continuous
 62
     7
370
    30
100
AcDbLine
 10
176.840037
 20
-9.48482
 30
0.0
 11
174.569582
 21
-4.943911
 31
0.0
  0
LINE
  5
1DA
330
1D6
100
AcDbEntity
  8
100
  6
Continuous
 62
     7
370
    30
100
AcDbLine
 10
174.569582
 20
-4.943911
 30
0.0
 11
170.703673
 21
-0.70982
 31
0.0
  0
LINE
  5
1DB
330
1D6
100
AcDbEntity
  8
100
  6
Continuous
 62
     7
370
    30
100
AcDbLine
 10
170.703673
 20
-0.70982
 30
0.0
 11
166.285491
 21
2.419726
 31
0.0
  0
LINE
  5
1DC
330
1D6
100
AcDbEntity
  8
100
  6
Continuous
 62
     7
370
    30
100
AcDbLine
 10
166.285491
 20
2.419726
 30
0.0
 11
159.535491
 21
7.021999
 31
0.0
  0
LINE
  5
1DD
330
1D6
100
AcDbEntity
  8
100
  6
Continuous
 62
     7
370
    30
100
AcDbLine
 10
159.535491
 20
7.021999
 30
0.0
 11
151.926401
 21
10.09018
 31
0.0
  0
LINE
  5
1DE
330
1D6
100
AcDbEntity
  8
100
  6
Continuous
 62
     7
370
    30
100
AcDbLine
 10
151.926401
 20
10.09018
 30
0.0
 11
143.335491
 21
13.035635
 31
0.0
  0
LINE
  5
1DF
330
1D6
100
AcDbEntity
  8
100
  6
Continuous
 62
     7
370
    30
100
AcDbLine
 10
143.335491
 20
13.035635
 30
0.0
 11
133.149128
 21
15.244726
 31
0.0
  0
LINE
  5
1E0
330
1D6
100
AcDbEntity
  8
100
  6
Continuous
 62
     7
370
    30
100
AcDbLine
 10
133.149128
 20
15.244726
 30
0.0
 11
122.594582
 21
16.778817
 31
0.0
  0
LINE
  5
1E1
330
1D6
100
AcDbEntity
  8
100
  6
Continuous
 62
     7
370
    30
100
AcDbLine
 10
122.594582
 20
16.778817
 30
0.0
 11
112.899128
 21
17.51518
 31
0.0
  0
LINE
  5
1E2
330
1D6
100
AcDbEntity
  8
100
  6
Continuous
 62
     7
370
    30
100
AcDbLine
 10
112.899128
 20
17.51518
 30
0.0
 11
98.724128
 21
17.760635
 31
0.0
  0
LINE
  5
1E3
330
1D6
100
AcDbEntity
  8
100
  6
Continuous
 62
     7
370
    30
100
AcDbLine
 10
98.724128
 20
17.760635
 30
0.0
 11
91.115037
 21
16.962908
 31
0.0
  0
LINE
  5
1E4
330
1D6
100
AcDbEntity
  8
100
  6
Continuous
 62
     7
370
    30
100
AcDbLine
 10
91.115037
 20
16.962908
 30
0.0
 11
78.105946
 21
15.121999
 31
0.0
  0
LINE
  5
1E5
330
1D6
100
AcDbEntity
  8
100
  6
Continuous
 62
     7
370
    30
100
AcDbLine
 10
78.105946
 20
15.121999
 30
0.0
 11
66.876401
 21
12.667453
 31
0.0
  0
LINE
  5
1E6
330
1D6
100
AcDbEntity
  8
100
  6
Continuous
 62
     7
370
    30
100
AcDbLine
 10
66.876401
 20
12.667453
 30
0.0
 11
60.61731
 21
10.581089
 31
0.0
  0
LINE
  5
1E7
330
1D6
100
AcDbEntity
  8
100
  6
Continuous
 62
     7
370
    30
100
AcDbLine
 10
60.61731
 20
10.581089
 30
0.0
 11
51.965037
 21
7.206089
 31
0.0
  0
LINE
  5
1E8
330
1D6
100
AcDbEntity
  8
100
  6
Continuous
 62
     7
370
    30
100
AcDbLine
 10
51.965037
 20
7.206089
 30
0.0
 11
44.846855
 21
3.585635
 31
0.0
  0
LINE
  5
1E9
330
1D6
100
AcDbEntity
  8
100
  6
Continuous
 62
     7
370
    30
100
AcDbLine
 10
44.846855
 20
3.585635
 30
0.0
 11
38.219582
 21
-0.955274
 31
0.0
  0
LINE
  5
1EA
330
1D6
100
AcDbEntity
  8
100
  6
Continuous
 62
     7
370
    30
100
AcDbLine
 10
38.219582
 20
-0.955274
 30
0.0
 11
33.249128
 21
-6.10982
 31
0.0
  0
LINE
  5
1EB
330
1D6
100
AcDbEntity
  8
100
  6
Continuous
 62
     7
370
    30
100
AcDbLine
 10
33.249128
 20
-6.10982
 30
0.0
 11
31.653673
 21
-8.564365
 31
0.0
  0
ENDBLK
  5
1D8
330
1D6
100
AcDbEntity
  8
0
100
AcDbBlockEnd
  0
BLOCK
  5
1EE
330
1ED
100
AcDbEntity
  8
0
100
AcDbBlockBegin
  2
G10
 70
     0
 10
0.0
 20
0.0
 30
0.0
  3
G10
  1

  0
LINE
  5
1F0
330
1ED
100
AcDbEntity
  8
100
  6
Continuous
 62
     7
370
    30
100
AcDbLine
 10
119.947125
 20
19.852903
 30
0.0
 11
119.096855
 21
43.84018
 31
0.0
  0
LINE
  5
1F1
330
1ED
100
AcDbEntity
  8
100
  6
Continuous
 62
     7
370
    30
100
AcDbLine
 10
119.096855
 20
43.84018
 30
0.0
 11
117.746855
 21
70.471999
 31
0.0
  0
LINE
  5
1F2
330
1ED
100
AcDbEntity
  8
100
  6
Continuous
 62
     7
370
    30
100
AcDbLine
 10
117.746855
 20
70.471999
 30
0.0
 11
116.887764
 21
94.281089
 31
0.0
  0
LINE
  5
1F3
330
1ED
100
AcDbEntity
  8
100
  6
Continuous
 62
     7
370
    30
100
AcDbLine
 10
116.887764
 20
94.281089
 30
0.0
 11
116.826401
 21
96.306089
 31
0.0
  0
LINE
  5
1F4
330
1ED
100
AcDbEntity
  8
100
  6
Continuous
 62
     7
370
    30
100
AcDbLine
 10
116.826401
 20
96.306089
 30
0.0
 11
114.61731
 21
97.042453
 31
0.0
  0
LINE
  5
1F5
330
1ED
100
AcDbEntity
  8
100
  6
Continuous
 62
     7
370
    30
100
AcDbLine
 10
114.61731
 20
97.042453
 30
0.0
 11
112.408219
 21
96.919726
 31
0.0
  0
LINE
  5
1F6
330
1ED
100
AcDbEntity
  8
100
  6
Continuous
 62
     7
370
    30
100
AcDbLine
 10
112.408219
 20
96.919726
 30
0.0
 11
110.260491
 21
96.551544
 31
0.0
  0
LINE
  5
1F7
330
1ED
100
AcDbEntity
  8
100
  6
Continuous
 62
     7
370
    30
100
AcDbLine
 10
110.260491
 20
96.551544
 30
0.0
 11
109.21731
 21
95.446999
 31
0.0
  0
LINE
  5
1F8
330
1ED
100
AcDbEntity
  8
100
  6
Continuous
 62
     7
370
    30
100
AcDbLine
 10
109.21731
 20
95.446999
 30
0.0
 11
109.21731
 21
94.894726
 31
0.0
  0
LINE
  5
1F9
330
1ED
100
AcDbEntity
  8
100
  6
Continuous
 62
     7
370
    30
100
AcDbLine
 10
109.21731
 20
94.894726
 30
0.0
 11
109.646855
 21
86.36518
 31
0.0
  0
LINE
  5
1FA
330
1ED
100
AcDbEntity
  8
100
  6
Continuous
 62
     7
370
    30
100
AcDbLine
 10
109.646855
 20
86.36518
 30
0.0
 11
110.137764
 21
74.767453
 31
0.0
  0
LINE
  5
1FB
330
1ED
100
AcDbEntity
  8
100
  6
Continuous
 62
     7
370
    30
100
AcDbLine
 10
110.137764
 20
74.767453
 30
0.0
 11
111.119582
 21
53.412908
 31
0.0
  0
LINE
  5
1FC
330
1ED
100
AcDbEntity
  8
100
  6
Continuous
 62
     7
370
    30
100
AcDbLine
 10
111.119582
 20
53.412908
 30
0.0
 11
111.965112
 21
20.248052
 31
0.0
  0
ENDBLK
  5
1EF
330
1ED
100
AcDbEntity
  8
0
100
AcDbBlockEnd
  0
BLOCK
  5
1FF
330
1FE
100
AcDbEntity
  8
0
100
AcDbBlockBegin
  2
G11
 70
     0
 10
0.0
 20
0.0
 30
0.0
  3
G11
  1

  0
LINE
  5
201
330
1FE
100
AcDbEntity
  8
100
  6
Continuous
 62
     7
370
    30
100
AcDbLine
 10
163.401401
 20
39.421999
 30
0.0
 11
161.754668
 21
41.00948
 31
0.0
  0
LINE
  5
202
330
1FE
100
AcDbEntity
  8
100
  6
Continuous
 62
     7
370
    30
100
AcDbLine
 10
161.754668
 20
41.00948
 30
0.0
 11
161.631589
 21
46.537665
 31
0.0
  0
LINE
  5
203
330
1FE
100
AcDbEntity
  8
100
  6
Continuous
 62
     7
370
    30
100
AcDbLine
 10
161.631589
 20
46.537665
 30
0.0
 11
162.971855
 21
48.135635
 31
0.0
  0
LINE
  5
204
330
1FE
100
AcDbEntity
  8
100
  6
Continuous
 62
     7
370
    30
100
AcDbLine
 10
162.971855
 20
48.135635
 30
0.0
 11
164.505946
 21
50.59018
 31
0.0
  0
LINE
  5
205
330
1FE
100
AcDbEntity
  8
100
  6
Continuous
 62
     7
370
    30
100
AcDbLine
 10
164.505946
 20
50.59018
 30
0.0
 11
167.880946
 21
50.896999
 31
0.0
  0
LINE
  5
206
330
1FE
100
AcDbEntity
  8
100
  6
Continuous
 62
     7
370
    30
100
AcDbLine
 10
167.880946
 20
50.896999
 30
0.0
 11
168.61731
 21
50.406089
 31
0.0
  0
LINE
  5
207
330
1FE
100
AcDbEntity
  8
100
  6
Continuous
 62
     7
370
    30
100
AcDbLine
 10
168.61731
 20
50.406089
 30
0.0
 11
168.555946
 21
42.612908
 31
0.0
  0
LINE
  5
208
330
1FE
100
AcDbEntity
  8
100
  6
Continuous
 62
     7
370
    30
100
AcDbLine
 10
168.555946
 20
42.612908
 30
0.0
 11
168.249128
 21
41.81518
 31
0.0
  0
LINE
  5
209
330
1FE
100
AcDbEntity
  8
100
  6
Continuous
 62
     7
370
    30
100
AcDbLine
 10
168.249128
 20
41.81518
 30
0.0
 11
169.230946
 21
23.344726
 31
0.0
  0
LINE
  5
20A
330
1FE
100
AcDbEntity
  8
100
  6
Continuous
 62
     7
370
    30
100
AcDbLine
 10
169.230946
 20
23.344726
 30
0.0
 11
170.438427
 21
1.955172
 31
0.0
  0
ENDBLK
  5
200
330
1FE
100
AcDbEntity
  8
0
100
AcDbBlockEnd
  0
BLOCK
  5
20D
330
20C
100
AcDbEntity
  8
0
100
AcDbBlockBegin
  2
G12
 70
     0
 10
0.0
 20
0.0
 30
0.0
  3
G12
  1

  0
LINE
  5
20F
330
20C
100
AcDbEntity
  8
100
  6
Continuous
 62
     7
370
    30
100
AcDbLine
 10
41.778673
 20
3.953817
 30
0.0
 11
42.269582
 21
30.156089
 31
0.0
  0
LINE
  5
210
330
20C
100
AcDbEntity
  8
100
  6
Continuous
 62
     7
370
    30
100
AcDbLine
 10
42.269582
 20
30.156089
 30
0.0
 11
42.760491
 21
57.156089
 31
0.0
  0
ENDBLK
  5
20E
330
20C
100
AcDbEntity
  8
0
100
AcDbBlockEnd
  0
BLOCK
  5
213
330
212
100
AcDbEntity
  8
0
100
AcDbBlockBegin
  2
G13
 70
     0
 10
0.0
 20
0.0
 30
0.0
  3
G13
  1

  0
LINE
  5
215
330
212
100
AcDbEntity
  8
100
  6
Continuous
 62
     7
370
    30
100
AcDbLine
 10
37.829889
 20
0.465793
 30
0.0
 11
37.66731
 21
15.244726
 31
0.0
  0
LINE
  5
216
330
212
100
AcDbEntity
  8
100
  6
Continuous
 62
     7
370
    30
100
AcDbLine
 10
37.66731
 20
15.244726
 30
0.0
 11
38.526401
 21
36.967453
 31
0.0
  0
LINE
  5
217
330
212
100
AcDbEntity
  8
100
  6
Continuous
 62
     7
370
    30
100
AcDbLine
 10
38.526401
 20
36.967453
 30
0.0
 11
38.771855
 21
48.135635
 31
0.0
  0
LINE
  5
218
330
212
100
AcDbEntity
  8
100
  6
Continuous
 62
     7
370
    30
100
AcDbLine
 10
38.771855
 20
48.135635
 30
0.0
 11
40.183219
 21
49.546999
 31
0.0
  0
LINE
  5
219
330
212
100
AcDbEntity
  8
100
  6
Continuous
 62
     7
370
    30
100
AcDbLine
 10
40.183219
 20
49.546999
 30
0.0
 11
39.630946
 21
54.762908
 31
0.0
  0
LINE
  5
21A
330
212
100
AcDbEntity
  8
100
  6
Continuous
 62
     7
370
    30
100
AcDbLine
 10
39.630946
 20
54.762908
 30
0.0
 11
37.237764
 21
56.112908
 31
0.0
  0
LINE
  5
21B
330
212
100
AcDbEntity
  8
100
  6
Continuous
 62
     7
370
    30
100
AcDbLine
 10
37.237764
 20
56.112908
 30
0.0
 11
33.985491
 21
56.358362
 31
0.0
  0
LINE
  5
21C
330
212
100
AcDbEntity
  8
100
  6
Continuous
 62
     7
370
    30
100
AcDbLine
 10
33.985491
 20
56.358362
 30
0.0
 11
32.144582
 21
55.008362
 31
0.0
  0
LINE
  5
21D
330
212
100
AcDbEntity
  8
100
  6
Continuous
 62
     7
370
    30
100
AcDbLine
 10
32.144582
 20
55.008362
 30
0.0
 11
32.26731
 21
33.469726
 31
0.0
  0
LINE
  5
21E
330
212
100
AcDbEntity
  8
100
  6
Continuous
 62
     7
370
    30
100
AcDbLine
 10
32.26731
 20
33.469726
 30
0.0
 11
32.083219
 21
10.396999
 31
0.0
  0
LINE
  5
21F
330
212
100
AcDbEntity
  8
100
  6
Continuous
 62
     7
370
    30
100
AcDbLine
 10
32.083219
 20
10.396999
 30
0.0
 11
32.353225
 21
-6.035911
 31
0.0
  0
ENDBLK
  5
214
330
212
100
AcDbEntity
  8
0
100
AcDbBlockEnd
  0
BLOCK
  5
222
330
221
100
AcDbEntity
  8
0
100
AcDbBlockBegin
  2
G14
 70
     0
 10
0.0
 20
0.0
 30
0.0
  3
G14
  1

  0
LINE
  5
224
330
221
100
AcDbEntity
  8
100
  6
Continuous
 62
     7
370
    30
100
AcDbLine
 10
41.410491
 20
50.896999
 30
0.0
 11
41.901401
 21
56.112908
 31
0.0
  0
LINE
  5
225
330
221
100
AcDbEntity
  8
100
  6
Continuous
 62
     7
370
    30
100
AcDbLine
 10
41.901401
 20
56.112908
 30
0.0
 11
44.049128
 21
63.353817
 31
0.0
  0
LINE
  5
226
330
221
100
AcDbEntity
  8
100
  6
Continuous
 62
     7
370
    30
100
AcDbLine
 10
44.049128
 20
63.353817
 30
0.0
 11
47.362764
 21
68.631089
 31
0.0
  0
LINE
  5
227
330
221
100
AcDbEntity
  8
100
  6
Continuous
 62
     7
370
    30
100
AcDbLine
 10
47.362764
 20
68.631089
 30
0.0
 11
52.762764
 21
74.767453
 31
0.0
  0
LINE
  5
228
330
221
100
AcDbEntity
  8
100
  6
Continuous
 62
     7
370
    30
100
AcDbLine
 10
52.762764
 20
74.767453
 30
0.0
 11
59.390037
 21
78.694726
 31
0.0
  0
LINE
  5
229
330
221
100
AcDbEntity
  8
100
  6
Continuous
 62
     7
370
    30
100
AcDbLine
 10
59.390037
 20
78.694726
 30
0.0
 11
69.208219
 21
83.603817
 31
0.0
  0
LINE
  5
22A
330
221
100
AcDbEntity
  8
100
  6
Continuous
 62
     7
370
    30
100
AcDbLine
 10
69.208219
 20
83.603817
 30
0.0
 11
78.780946
 21
86.917453
 31
0.0
  0
LINE
  5
22B
330
221
100
AcDbEntity
  8
100
  6
Continuous
 62
     7
370
    30
100
AcDbLine
 10
78.780946
 20
86.917453
 30
0.0
 11
87.371855
 21
89.126544
 31
0.0
  0
LINE
  5
22C
330
221
100
AcDbEntity
  8
100
  6
Continuous
 62
     7
370
    30
100
AcDbLine
 10
87.371855
 20
89.126544
 30
0.0
 11
95.594582
 21
89.985635
 31
0.0
  0
LINE
  5
22D
330
221
100
AcDbEntity
  8
100
  6
Continuous
 62
     7
370
    30
100
AcDbLine
 10
95.594582
 20
89.985635
 30
0.0
 11
103.449128
 21
90.353817
 31
0.0
  0
LINE
  5
22E
330
221
100
AcDbEntity
  8
100
  6
Continuous
 62
     7
370
    30
100
AcDbLine
 10
103.449128
 20
90.353817
 30
0.0
 11
109.452196
 21
90.230557
 31
0.0
  0
ENDBLK
  5
223
330
221
100
AcDbEntity
  8
0
100
AcDbBlockEnd
  0
BLOCK
  5
231
330
230
100
AcDbEntity
  8
0
100
AcDbBlockBegin
  2
G15
 70
     0
 10
0.0
 20
0.0
 30
0.0
  3
G15
  1

  0
LINE
  5
233
330
230
100
AcDbEntity
  8
100
  6
Continuous
 62
     7
370
    30
100
AcDbLine
 10
117.056539
 20
89.603616
 30
0.0
 11
124.558219
 21
88.758362
 31
0.0
  0
LINE
  5
234
330
230
100
AcDbEntity
  8
100
  6
Continuous
 62
     7
370
    30
100
AcDbLine
 10
124.558219
 20
88.758362
 30
0.0
 11
132.290037
 21
86.917453
 31
0.0
  0
LINE
  5
235
330
230
100
AcDbEntity
  8
100
  6
Continuous
 62
     7
370
    30
100
AcDbLine
 10
132.290037
 20
86.917453
 30
0.0
 11
139.040037
 21
84.094726
 31
0.0
  0
LINE
  5
236
330
230
100
AcDbEntity
  8
100
  6
Continuous
 62
     7
370
    30
100
AcDbLine
 10
139.040037
 20
84.094726
 30
0.0
 11
146.280946
 21
80.167453
 31
0.0
  0
LINE
  5
237
330
230
100
AcDbEntity
  8
100
  6
Continuous
 62
     7
370
    30
100
AcDbLine
 10
146.280946
 20
80.167453
 30
0.0
 11
152.662764
 21
75.381089
 31
0.0
  0
LINE
  5
238
330
230
100
AcDbEntity
  8
100
  6
Continuous
 62
     7
370
    30
100
AcDbLine
 10
152.662764
 20
75.381089
 30
0.0
 11
157.571855
 21
69.735635
 31
0.0
  0
LINE
  5
239
330
230
100
AcDbEntity
  8
100
  6
Continuous
 62
     7
370
    30
100
AcDbLine
 10
157.571855
 20
69.735635
 30
0.0
 11
160.51731
 21
64.335635
 31
0.0
  0
LINE
  5
23A
330
230
100
AcDbEntity
  8
100
  6
Continuous
 62
     7
370
    30
100
AcDbLine
 10
160.51731
 20
64.335635
 30
0.0
 11
162.112764
 21
59.303817
 31
0.0
  0
LINE
  5
23B
330
230
100
AcDbEntity
  8
100
  6
Continuous
 62
     7
370
    30
100
AcDbLine
 10
162.112764
 20
59.303817
 30
0.0
 11
161.990037
 21
54.394726
 31
0.0
  0
LINE
  5
23C
330
230
100
AcDbEntity
  8
100
  6
Continuous
 62
     7
370
    30
100
AcDbLine
 10
161.990037
 20
54.394726
 30
0.0
 11
161.990037
 21
50.835635
 31
0.0
  0
ENDBLK
  5
232
330
230
100
AcDbEntity
  8
0
100
AcDbBlockEnd
  0
BLOCK
  5
23F
330
23E
100
AcDbEntity
  8
0
100
AcDbBlockBegin
  2
G16
 70
     0
 10
0.0
 20
0.0
 30
0.0
  3
G16
  1

  0
LINE
  5
241
330
23E
100
AcDbEntity
  8
100
  6
Continuous
 62
     7
370
    30
100
AcDbLine
 10
168.249128
 20
41.81518
 30
0.0
 11
171.808219
 21
46.417453
 31
0.0
  0
LINE
  5
242
330
23E
100
AcDbEntity
  8
100
  6
Continuous
 62
     7
370
    30
100
AcDbLine
 10
171.808219
 20
46.417453
 30
0.0
 11
173.771855
 21
53.535635
 31
0.0
  0
LINE
  5
243
330
23E
100
AcDbEntity
  8
100
  6
Continuous
 62
     7
370
    30
100
AcDbLine
 10
173.771855
 20
53.535635
 30
0.0
 11
174.01731
 21
58.935635
 31
0.0
  0
LINE
  5
244
330
23E
100
AcDbEntity
  8
100
  6
Continuous
 62
     7
370
    30
100
AcDbLine
 10
174.01731
 20
58.935635
 30
0.0
 11
173.158219
 21
65.071999
 31
0.0
  0
LINE
  5
245
330
23E
100
AcDbEntity
  8
100
  6
Continuous
 62
     7
370
    30
100
AcDbLine
 10
173.158219
 20
65.071999
 30
0.0
 11
170.703673
 21
71.085635
 31
0.0
  0
LINE
  5
246
330
23E
100
AcDbEntity
  8
100
  6
Continuous
 62
     7
370
    30
100
AcDbLine
 10
170.703673
 20
71.085635
 30
0.0
 11
167.26731
 21
77.467453
 31
0.0
  0
LINE
  5
247
330
23E
100
AcDbEntity
  8
100
  6
Continuous
 62
     7
370
    30
100
AcDbLine
 10
167.26731
 20
77.467453
 30
0.0
 11
162.112764
 21
84.094726
 31
0.0
  0
LINE
  5
248
330
23E
100
AcDbEntity
  8
100
  6
Continuous
 62
     7
370
    30
100
AcDbLine
 10
162.112764
 20
84.094726
 30
0.0
 11
156.590037
 21
88.635635
 31
0.0
  0
LINE
  5
249
330
23E
100
AcDbEntity
  8
100
  6
Continuous
 62
     7
370
    30
100
AcDbLine
 10
156.590037
 20
88.635635
 30
0.0
 11
147.385491
 21
94.035635
 31
0.0
  0
LINE
  5
24A
330
23E
100
AcDbEntity
  8
100
  6
Continuous
 62
     7
370
    30
100
AcDbLine
 10
147.385491
 20
94.035635
 30
0.0
 11
136.953673
 21
97.962908
 31
0.0
  0
LINE
  5
24B
330
23E
100
AcDbEntity
  8
100
  6
Continuous
 62
     7
370
    30
100
AcDbLine
 10
136.953673
 20
97.962908
 30
0.0
 11
129.221855
 21
99.926544
 31
0.0
  0
LINE
  5
24C
330
23E
100
AcDbEntity
  8
100
  6
Continuous
 62
     7
370
    30
100
AcDbLine
 10
129.221855
 20
99.926544
 30
0.0
 11
119.771855
 21
101.644726
 31
0.0
  0
LINE
  5
24D
330
23E
100
AcDbEntity
  8
100
  6
Continuous
 62
     7
370
    30
100
AcDbLine
 10
119.771855
 20
101.644726
 30
0.0
 11
109.708219
 21
102.381089
 31
0.0
  0
LINE
  5
24E
330
23E
100
AcDbEntity
  8
100
  6
Continuous
 62
     7
370
    30
100
AcDbLine
 10
109.708219
 20
102.381089
 30
0.0
 11
100.135491
 21
102.871999
 31
0.0
  0
LINE
  5
24F
330
23E
100
AcDbEntity
  8
100
  6
Continuous
 62
     7
370
    30
100
AcDbLine
 10
100.135491
 20
102.871999
 30
0.0
 11
83.321855
 21
101.031089
 31
0.0
  0
LINE
  5
250
330
23E
100
AcDbEntity
  8
100
  6
Continuous
 62
     7
370
    30
100
AcDbLine
 10
83.321855
 20
101.031089
 30
0.0
 11
72.399128
 21
97.84018
 31
0.0
  0
LINE
  5
251
330
23E
100
AcDbEntity
  8
100
  6
Continuous
 62
     7
370
    30
100
AcDbLine
 10
72.399128
 20
97.84018
 30
0.0
 11
63.685491
 21
94.771999
 31
0.0
  0
LINE
  5
252
330
23E
100
AcDbEntity
  8
100
  6
Continuous
 62
     7
370
    30
100
AcDbLine
 10
63.685491
 20
94.771999
 30
0.0
 11
54.849128
 21
90.353817
 31
0.0
  0
LINE
  5
253
330
23E
100
AcDbEntity
  8
100
  6
Continuous
 62
     7
370
    30
100
AcDbLine
 10
54.849128
 20
90.353817
 30
0.0
 11
47.11731
 21
86.181089
 31
0.0
  0
LINE
  5
254
330
23E
100
AcDbEntity
  8
100
  6
Continuous
 62
     7
370
    30
100
AcDbLine
 10
47.11731
 20
86.181089
 30
0.0
 11
41.226401
 21
80.412908
 31
0.0
  0
LINE
  5
255
330
23E
100
AcDbEntity
  8
100
  6
Continuous
 62
     7
370
    30
100
AcDbLine
 10
41.226401
 20
80.412908
 30
0.0
 11
36.071855
 21
74.521999
 31
0.0
  0
LINE
  5
256
330
23E
100
AcDbEntity
  8
100
  6
Continuous
 62
     7
370
    30
100
AcDbLine
 10
36.071855
 20
74.521999
 30
0.0
 11
32.880946
 21
68.876544
 31
0.0
  0
LINE
  5
257
330
23E
100
AcDbEntity
  8
100
  6
Continuous
 62
     7
370
    30
100
AcDbLine
 10
32.880946
 20
68.876544
 30
0.0
 11
30.794582
 21
63.599271
 31
0.0
  0
LINE
  5
258
330
23E
100
AcDbEntity
  8
100
  6
Continuous
 62
     7
370
    30
100
AcDbLine
 10
30.794582
 20
63.599271
 30
0.0
 11
29.444582
 21
58.076544
 31
0.0
  0
LINE
  5
259
330
23E
100
AcDbEntity
  8
100
  6
Continuous
 62
     7
370
    30
100
AcDbLine
 10
29.444582
 20
58.076544
 30
0.0
 11
29.321855
 21
52.553817
 31
0.0
  0
LINE
  5
25A
330
23E
100
AcDbEntity
  8
100
  6
Continuous
 62
     7
370
    30
100
AcDbLine
 10
29.321855
 20
52.553817
 30
0.0
 11
29.935491
 21
48.381089
 31
0.0
  0
LINE
  5
25B
330
23E
100
AcDbEntity
  8
100
  6
Continuous
 62
     7
370
    30
100
AcDbLine
 10
29.935491
 20
48.381089
 30
0.0
 11
31.040037
 21
45.435635
 31
0.0
  0
LINE
  5
25C
330
23E
100
AcDbEntity
  8
100
  6
Continuous
 62
     7
370
    30
100
AcDbLine
 10
31.040037
 20
45.435635
 30
0.0
 11
32.21451
 21
42.736033
 31
0.0
  0
ENDBLK
  5
240
330
23E
100
AcDbEntity
  8
0
100
AcDbBlockEnd
  0
BLOCK
  5
25F
330
25E
100
AcDbEntity
  8
0
100
AcDbBlockBegin
  2
G17
 70
     0
 10
0.0
 20
0.0
 30
0.0
  3
G17
  1

  0
LINE
  5
261
330
25E
100
AcDbEntity
  8
100
  6
Continuous
 62
     7
370
    30
100
AcDbLine
 10
29.996855
 20
51.387908
 30
0.0
 11
29.996855
 21
56.419726
 31
0.0
  0
LINE
  5
262
330
25E
100
AcDbEntity
  8
100
  6
Continuous
 62
     7
370
    30
100
AcDbLine
 10
29.996855
 20
56.419726
 30
0.0
 11
30.549128
 21
59.794726
 31
0.0
  0
LINE
  5
263
330
25E
100
AcDbEntity
  8
100
  6
Continuous
 62
     7
370
    30
100
AcDbLine
 10
30.549128
 20
59.794726
 30
0.0
 11
31.469582
 21
63.721999
 31
0.0
  0
LINE
  5
264
330
25E
100
AcDbEntity
  8
100
  6
Continuous
 62
     7
370
    30
100
AcDbLine
 10
31.469582
 20
63.721999
 30
0.0
 11
33.555946
 21
67.403817
 31
0.0
  0
LINE
  5
265
330
25E
100
AcDbEntity
  8
100
  6
Continuous
 62
     7
370
    30
100
AcDbLine
 10
33.555946
 20
67.403817
 30
0.0
 11
35.949128
 21
71.576544
 31
0.0
  0
LINE
  5
266
330
25E
100
AcDbEntity
  8
100
  6
Continuous
 62
     7
370
    30
100
AcDbLine
 10
35.949128
 20
71.576544
 30
0.0
 11
39.446855
 21
75.994726
 31
0.0
  0
LINE
  5
267
330
25E
100
AcDbEntity
  8
100
  6
Continuous
 62
     7
370
    30
100
AcDbLine
 10
39.446855
 20
75.994726
 30
0.0
 11
46.933219
 21
82.437908
 31
0.0
  0
LINE
  5
268
330
25E
100
AcDbEntity
  8
100
  6
Continuous
 62
     7
370
    30
100
AcDbLine
 10
46.933219
 20
82.437908
 30
0.0
 11
52.026401
 21
85.69018
 31
0.0
  0
LINE
  5
269
330
25E
100
AcDbEntity
  8
100
  6
Continuous
 62
     7
370
    30
100
AcDbLine
 10
52.026401
 20
85.69018
 30
0.0
 11
57.610491
 21
89.126544
 31
0.0
  0
LINE
  5
26A
330
25E
100
AcDbEntity
  8
100
  6
Continuous
 62
     7
370
    30
100
AcDbLine
 10
57.610491
 20
89.126544
 30
0.0
 11
63.869582
 21
91.826544
 31
0.0
  0
LINE
  5
26B
330
25E
100
AcDbEntity
  8
100
  6
Continuous
 62
     7
370
    30
100
AcDbLine
 10
63.869582
 20
91.826544
 30
0.0
 11
72.890037
 21
95.14018
 31
0.0
  0
LINE
  5
26C
330
25E
100
AcDbEntity
  8
100
  6
Continuous
 62
     7
370
    30
100
AcDbLine
 10
72.890037
 20
95.14018
 30
0.0
 11
80.805946
 21
97.103817
 31
0.0
  0
LINE
  5
26D
330
25E
100
AcDbEntity
  8
100
  6
Continuous
 62
     7
370
    30
100
AcDbLine
 10
80.805946
 20
97.103817
 30
0.0
 11
87.371855
 21
98.944726
 31
0.0
  0
LINE
  5
26E
330
25E
100
AcDbEntity
  8
100
  6
Continuous
 62
     7
370
    30
100
AcDbLine
 10
87.371855
 20
98.944726
 30
0.0
 11
95.962764
 21
99.926544
 31
0.0
  0
LINE
  5
26F
330
25E
100
AcDbEntity
  8
100
  6
Continuous
 62
     7
370
    30
100
AcDbLine
 10
95.962764
 20
99.926544
 30
0.0
 11
103.633219
 21
99.926544
 31
0.0
  0
LINE
  5
270
330
25E
100
AcDbEntity
  8
100
  6
Continuous
 62
     7
370
    30
100
AcDbLine
 10
103.633219
 20
99.926544
 30
0.0
 11
110.199128
 21
100.54018
 31
0.0
  0
LINE
  5
271
330
25E
100
AcDbEntity
  8
100
  6
Continuous
 62
     7
370
    30
100
AcDbLine
 10
110.199128
 20
100.54018
 30
0.0
 11
118.728673
 21
99.926544
 31
0.0
  0
LINE
  5
272
330
25E
100
AcDbEntity
  8
100
  6
Continuous
 62
     7
370
    30
100
AcDbLine
 10
118.728673
 20
99.926544
 30
0.0
 11
128.301401
 21
98.208362
 31
0.0
  0
LINE
  5
273
330
25E
100
AcDbEntity
  8
100
  6
Continuous
 62
     7
370
    30
100
AcDbLine
 10
128.301401
 20
98.208362
 30
0.0
 11
138.978673
 21
94.649271
 31
0.0
  0
LINE
  5
274
330
25E
100
AcDbEntity
  8
100
  6
Continuous
 62
     7
370
    30
100
AcDbLine
 10
138.978673
 20
94.649271
 30
0.0
 11
147.078673
 21
91.519726
 31
0.0
  0
LINE
  5
275
330
25E
100
AcDbEntity
  8
100
  6
Continuous
 62
     7
370
    30
100
AcDbLine
 10
147.078673
 20
91.519726
 30
0.0
 11
154.871855
 21
87.776544
 31
0.0
  0
LINE
  5
276
330
25E
100
AcDbEntity
  8
100
  6
Continuous
 62
     7
370
    30
100
AcDbLine
 10
154.871855
 20
87.776544
 30
0.0
 11
159.351401
 21
84.34018
 31
0.0
  0
LINE
  5
277
330
25E
100
AcDbEntity
  8
100
  6
Continuous
 62
     7
370
    30
100
AcDbLine
 10
159.351401
 20
84.34018
 30
0.0
 11
163.953673
 21
79.860635
 31
0.0
  0
LINE
  5
278
330
25E
100
AcDbEntity
  8
100
  6
Continuous
 62
     7
370
    30
100
AcDbLine
 10
163.953673
 20
79.860635
 30
0.0
 11
167.328673
 21
75.871999
 31
0.0
  0
LINE
  5
279
330
25E
100
AcDbEntity
  8
100
  6
Continuous
 62
     7
370
    30
100
AcDbLine
 10
167.328673
 20
75.871999
 30
0.0
 11
168.719489
 21
74.770549
 31
0.0
  0
ENDBLK
  5
260
330
25E
100
AcDbEntity
  8
0
100
AcDbBlockEnd
  0
BLOCK
  5
27C
330
27B
100
AcDbEntity
  8
0
100
AcDbBlockBegin
  2
G18
 70
     0
 10
0.0
 20
0.0
 30
0.0
  3
G18
  1

  0
LINE
  5
27E
330
27B
100
AcDbEntity
  8
100
  6
Continuous
 62
     7
370
    30
100
AcDbLine
 10
165.753988
 20
79.413152
 30
0.0
 11
164.505946
 21
108.701544
 31
0.0
  0
LINE
  5
27F
330
27B
100
AcDbEntity
  8
100
  6
Continuous
 62
     7
370
    30
100
AcDbLine
 10
164.505946
 20
108.701544
 30
0.0
 11
165.91731
 21
109.069726
 31
0.0
  0
LINE
  5
280
330
27B
100
AcDbEntity
  8
100
  6
Continuous
 62
     7
370
    30
100
AcDbLine
 10
165.91731
 20
109.069726
 30
0.0
 11
166.162764
 21
111.34018
 31
0.0
  0
LINE
  5
281
330
27B
100
AcDbEntity
  8
100
  6
Continuous
 62
     7
370
    30
100
AcDbLine
 10
166.162764
 20
111.34018
 30
0.0
 11
164.076401
 21
112.996999
 31
0.0
  0
LINE
  5
282
330
27B
100
AcDbEntity
  8
100
  6
Continuous
 62
     7
370
    30
100
AcDbLine
 10
164.076401
 20
112.996999
 30
0.0
 11
160.885491
 21
113.242453
 31
0.0
  0
LINE
  5
283
330
27B
100
AcDbEntity
  8
100
  6
Continuous
 62
     7
370
    30
100
AcDbLine
 10
160.885491
 20
113.242453
 30
0.0
 11
158.185491
 21
111.585635
 31
0.0
  0
LINE
  5
284
330
27B
100
AcDbEntity
  8
100
  6
Continuous
 62
     7
370
    30
100
AcDbLine
 10
158.185491
 20
111.585635
 30
0.0
 11
157.940037
 21
109.928817
 31
0.0
  0
LINE
  5
285
330
27B
100
AcDbEntity
  8
100
  6
Continuous
 62
     7
370
    30
100
AcDbLine
 10
157.940037
 20
109.928817
 30
0.0
 11
158.983219
 21
108.271999
 31
0.0
  0
LINE
  5
286
330
27B
100
AcDbEntity
  8
100
  6
Continuous
 62
     7
370
    30
100
AcDbLine
 10
158.983219
 20
108.271999
 30
0.0
 11
160.208123
 21
85.660764
 31
0.0
  0
ENDBLK
  5
27D
330
27B
100
AcDbEntity
  8
0
100
AcDbBlockEnd
  0
BLOCK
  5
289
330
288
100
AcDbEntity
  8
0
100
AcDbBlockBegin
  2
G19
 70
     0
 10
0.0
 20
0.0
 30
0.0
  3
G19
  1

  0
LINE
  5
28B
330
288
100
AcDbEntity
  8
100
  6
Continuous
 62
     7
370
    30
100
AcDbLine
 10
159.213902
 20
86.478235
 30
0.0
 11
157.633219
 21
104.221999
 31
0.0
  0
LINE
  5
28C
330
288
100
AcDbEntity
  8
100
  6
Continuous
 62
     7
370
    30
100
AcDbLine
 10
157.633219
 20
104.221999
 30
0.0
 11
157.755946
 21
117.231089
 31
0.0
  0
ENDBLK
  5
28A
330
288
100
AcDbEntity
  8
0
100
AcDbBlockEnd
  0
BLOCK
  5
28F
330
28E
100
AcDbEntity
  8
0
100
AcDbBlockBegin
  2
G20
 70
     0
 10
0.0
 20
0.0
 30
0.0
  3
G20
  1

  0
LINE
  5
291
330
28E
100
AcDbEntity
  8
100
  6
Continuous
 62
     7
370
    30
100
AcDbLine
 10
117.120474
 20
101.838729
 30
0.0
 11
114.187764
 21
164.603817
 31
0.0
  0
LINE
  5
292
330
28E
100
AcDbEntity
  8
100
  6
Continuous
 62
     7
370
    30
100
AcDbLine
 10
114.187764
 20
164.603817
 30
0.0
 11
115.783219
 21
167.181089
 31
0.0
  0
LINE
  5
293
330
28E
100
AcDbEntity
  8
100
  6
Continuous
 62
     7
370
    30
100
AcDbLine
 10
115.783219
 20
167.181089
 30
0.0
 11
114.555946
 21
171.599271
 31
0.0
  0
LINE
  5
294
330
28E
100
AcDbEntity
  8
100
  6
Continuous
 62
     7
370
    30
100
AcDbLine
 10
114.555946
 20
171.599271
 30
0.0
 11
110.137764
 21
171.967453
 31
0.0
  0
LINE
  5
295
330
28E
100
AcDbEntity
  8
100
  6
Continuous
 62
     7
370
    30
100
AcDbLine
 10
110.137764
 20
171.967453
 30
0.0
 11
106.455946
 21
169.267453
 31
0.0
  0
LINE
  5
296
330
28E
100
AcDbEntity
  8
100
  6
Continuous
 62
     7
370
    30
100
AcDbLine
 10
106.455946
 20
169.267453
 30
0.0
 11
106.333219
 21
166.444726
 31
0.0
  0
LINE
  5
297
330
28E
100
AcDbEntity
  8
100
  6
Continuous
 62
     7
370
    30
100
AcDbLine
 10
106.333219
 20
166.444726
 30
0.0
 11
107.315037
 21
164.849271
 31
0.0
  0
LINE
  5
298
330
28E
100
AcDbEntity
  8
100
  6
Continuous
 62
     7
370
    30
100
AcDbLine
 10
107.315037
 20
164.849271
 30
0.0
 11
109.708219
 21
102.381089
 31
0.0
  0
ENDBLK
  5
290
330
28E
100
AcDbEntity
  8
0
100
AcDbBlockEnd
  0
BLOCK
  5
29B
330
29A
100
AcDbEntity
  8
0
100
AcDbBlockBegin
  2
G21
 70
     0
 10
0.0
 20
0.0
 30
0.0
  3
G21
  1

  0
LINE
  5
29D
330
29A
100
AcDbEntity
  8
100
  6
Continuous
 62
     7
370
    30
100
AcDbLine
 10
113.083219
 20
166.567453
 30
0.0
 11
110.383219
 21
168.162908
 31
0.0
  0
LINE
  5
29E
330
29A
100
AcDbEntity
  8
100
  6
Continuous
 62
     7
370
    30
100
AcDbLine
 10
110.383219
 20
168.162908
 30
0.0
 11
108.174128
 21
166.812908
 31
0.0
  0
ENDBLK
  5
29C
330
29A
100
AcDbEntity
  8
0
100
AcDbBlockEnd
  0
BLOCK
  5
2A1
330
2A0
100
AcDbEntity
  8
0
100
AcDbBlockBegin
  2
G22
 70
     0
 10
0.0
 20
0.0
 30
0.0
  3
G22
  1

  0
LINE
  5
2A3
330
2A0
100
AcDbEntity
  8
100
  6
Continuous
 62
     7
370
    30
100
AcDbLine
 10
163.524128
 20
109.744726
 30
0.0
 11
161.560491
 21
110.481089
 31
0.0
  0
LINE
  5
2A4
330
2A0
100
AcDbEntity
  8
100
  6
Continuous
 62
     7
370
    30
100
AcDbLine
 10
161.560491
 20
110.481089
 30
0.0
 11
160.087764
 21
109.867453
 31
0.0
  0
ENDBLK
  5
2A2
330
2A0
100
AcDbEntity
  8
0
100
AcDbBlockEnd
  0
BLOCK
  5
2A7
330
2A6
100
AcDbEntity
  8
0
100
AcDbBlockBegin
  2
G23
 70
     0
 10
0.0
 20
0.0
 30
0.0
  3
G23
  1

  0
LINE
  5
2A9
330
2A6
100
AcDbEntity
  8
100
  6
Continuous
 62
     7
370
    30
100
AcDbLine
 10
37.237764
 20
56.112908
 30
0.0
 11
36.869582
 21
50.59018
 31
0.0
  0
LINE
  5
2AA
330
2A6
100
AcDbEntity
  8
100
  6
Continuous
 62
     7
370
    30
100
AcDbLine
 10
36.869582
 20
50.59018
 30
0.0
 11
40.183219
 21
49.546999
 31
0.0
  0
ENDBLK
  5
2A8
330
2A6
100
AcDbEntity
  8
0
100
AcDbBlockEnd
  0
BLOCK
  5
2AD
330
2AC
100
AcDbEntity
  8
0
100
AcDbBlockBegin
  2
G24
 70
     0
 10
0.0
 20
0.0
 30
0.0
  3
G24
  1

  0
LINE
  5
2AF
330
2AC
100
AcDbEntity
  8
100
  6
Continuous
 62
     7
370
    30
100
AcDbLine
 10
165.978673
 20
41.569726
 30
0.0
 11
164.015037
 21
41.569726
 31
0.0
  0
LINE
  5
2B0
330
2AC
100
AcDbEntity
  8
100
  6
Continuous
 62
     7
370
    30
100
AcDbLine
 10
164.015037
 20
41.569726
 30
0.0
 11
163.401401
 21
39.421999
 31
0.0
  0
ENDBLK
  5
2AE
330
2AC
100
AcDbEntity
  8
0
100
AcDbBlockEnd
  0
BLOCK
  5
2B3
330
2B2
100
AcDbEntity
  8
0
100
AcDbBlockBegin
  2
G25
 70
     0
 10
0.0
 20
0.0
 30
0.0
  3
G25
  1

  0
LINE
  5
2B5
330
2B2
100
AcDbEntity
  8
100
  6
Continuous
 62
     7
370
    30
100
AcDbLine
 10
165.978673
 20
41.569726
 30
0.0
 11
166.346855
 21
44.883362
 31
0.0
  0
LINE
  5
2B6
330
2B2
100
AcDbEntity
  8
100
  6
Continuous
 62
     7
370
    30
100
AcDbLine
 10
166.346855
 20
44.883362
 30
0.0
 11
164.505946
 21
45.128817
 31
0.0
  0
LINE
  5
2B7
330
2B2
100
AcDbEntity
  8
100
  6
Continuous
 62
     7
370
    30
100
AcDbLine
 10
164.505946
 20
45.128817
 30
0.0
 11
163.155946
 21
46.110635
 31
0.0
  0
ENDBLK
  5
2B4
330
2B2
100
AcDbEntity
  8
0
100
AcDbBlockEnd
  0
BLOCK
  5
2BA
330
2B9
100
AcDbEntity
  8
0
100
AcDbBlockBegin
  2
G26
 70
     0
 10
0.0
 20
0.0
 30
0.0
  3
G26
  1

  0
LINE
  5
2BC
330
2B9
100
AcDbEntity
  8
100
  6
Continuous
 62
     7
370
    30
100
AcDbLine
 10
170.151401
 20
-29.366638
 30
0.0
 11
169.821656
 21
-24.463607
 31
0.0
  0
LINE
  5
2BD
330
2B9
100
AcDbEntity
  8
100
  6
Continuous
 62
     7
370
    30
100
AcDbLine
 10
169.821656
 20
-24.463607
 30
0.0
 11
170.151401
 21
-29.366638
 31
0.0
  0
ENDBLK
  5
2BB
330
2B9
100
AcDbEntity
  8
0
100
AcDbBlockEnd
  0
BLOCK
  5
2C0
330
2BF
100
AcDbEntity
  8
0
100
AcDbBlockBegin
  2
G27
 70
     0
 10
0.0
 20
0.0
 30
0.0
  3
G27
  1

  0
LINE
  5
2C2
330
2BF
100
AcDbEntity
  8
100
  6
Continuous
 62
     7
370
    30
100
AcDbLine
 10
36.255946
 20
-23.107547
 30
0.0
 11
35.887764
 21
-18.93482
 31
0.0
  0
LINE
  5
2C3
330
2BF
100
AcDbEntity
  8
100
  6
Continuous
 62
     7
370
    30
100
AcDbLine
 10
35.887764
 20
-18.93482
 30
0.0
 11
39.431514
 21
-18.996183
 31
0.0
  0
ENDBLK
  5
2C1
330
2BF
100
AcDbEntity
  8
0
100
AcDbBlockEnd
  0
BLOCK
  5
2C6
330
2C5
100
AcDbEntity
  8
0
100
AcDbBlockBegin
  2
G28
 70
     0
 10
0.0
 20
0.0
 30
0.0
  3
G28
  1

  0
LINE
  5
2C8
330
2C5
100
AcDbEntity
  8
100
  6
Continuous
 62
     7
370
    30
100
AcDbLine
 10
43.951256
 20
83.080995
 30
0.0
 11
44.110491
 21
108.824271
 31
0.0
  0
LINE
  5
2C9
330
2C5
100
AcDbEntity
  8
100
  6
Continuous
 62
     7
370
    30
100
AcDbLine
 10
44.110491
 20
108.824271
 30
0.0
 11
44.110491
 21
118.396999
 31
0.0
  0
ENDBLK
  5
2C7
330
2C5
100
AcDbEntity
  8
0
100
AcDbBlockEnd
  0
BLOCK
  5
2CC
330
2CB
100
AcDbEntity
  8
0
100
AcDbBlockBegin
  2
G29
 70
     0
 10
0.0
 20
0.0
 30
0.0
  3
G29
  1

  0
LINE
  5
2CE
330
2CB
100
AcDbEntity
  8
100
  6
Continuous
 62
     7
370
    30
100
AcDbLine
 10
39.413187
 20
78.340663
 30
0.0
 11
39.446855
 21
88.942453
 31
0.0
  0
LINE
  5
2CF
330
2CB
100
AcDbEntity
  8
100
  6
Continuous
 62
     7
370
    30
100
AcDbLine
 10
39.446855
 20
88.942453
 30
0.0
 11
39.569582
 21
99.926544
 31
0.0
  0
LINE
  5
2D0
330
2CB
100
AcDbEntity
  8
100
  6
Continuous
 62
     7
370
    30
100
AcDbLine
 10
39.569582
 20
99.926544
 30
0.0
 11
40.183219
 21
113.487908
 31
0.0
  0
LINE
  5
2D1
330
2CB
100
AcDbEntity
  8
100
  6
Continuous
 62
     7
370
    30
100
AcDbLine
 10
40.183219
 20
113.487908
 30
0.0
 11
40.428673
 21
118.642453
 31
0.0
  0
ENDBLK
  5
2CD
330
2CB
100
AcDbEntity
  8
0
100
AcDbBlockEnd
  0
BLOCK
  5
2D4
330
2D3
100
AcDbEntity
  8
0
100
AcDbBlockBegin
  2
G30
 70
     0
 10
0.0
 20
0.0
 30
0.0
  3
G30
  1

  0
LINE
  5
2D6
330
2D3
100
AcDbEntity
  8
100
  6
Continuous
 62
     7
370
    30
100
AcDbLine
 10
32.880946
 20
68.876544
 30
0.0
 11
33.310491
 21
88.942453
 31
0.0
  0
LINE
  5
2D7
330
2D3
100
AcDbEntity
  8
100
  6
Continuous
 62
     7
370
    30
100
AcDbLine
 10
33.310491
 20
88.942453
 30
0.0
 11
34.046855
 21
107.842453
 31
0.0
  0
LINE
  5
2D8
330
2D3
100
AcDbEntity
  8
100
  6
Continuous
 62
     7
370
    30
100
AcDbLine
 10
34.046855
 20
107.842453
 30
0.0
 11
34.169582
 21
119.133362
 31
0.0
  0
LINE
  5
2D9
330
2D3
100
AcDbEntity
  8
100
  6
Continuous
 62
     7
370
    30
100
AcDbLine
 10
34.169582
 20
119.133362
 30
0.0
 11
33.126401
 21
119.931089
 31
0.0
  0
LINE
  5
2DA
330
2D3
100
AcDbEntity
  8
100
  6
Continuous
 62
     7
370
    30
100
AcDbLine
 10
33.126401
 20
119.931089
 30
0.0
 11
33.371855
 21
122.078817
 31
0.0
  0
LINE
  5
2DB
330
2D3
100
AcDbEntity
  8
100
  6
Continuous
 62
     7
370
    30
100
AcDbLine
 10
33.371855
 20
122.078817
 30
0.0
 11
35.703673
 21
122.999271
 31
0.0
  0
LINE
  5
2DC
330
2D3
100
AcDbEntity
  8
100
  6
Continuous
 62
     7
370
    30
100
AcDbLine
 10
35.703673
 20
122.999271
 30
0.0
 11
38.035491
 21
122.937908
 31
0.0
  0
LINE
  5
2DD
330
2D3
100
AcDbEntity
  8
100
  6
Continuous
 62
     7
370
    30
100
AcDbLine
 10
38.035491
 20
122.937908
 30
0.0
 11
40.121855
 21
122.753817
 31
0.0
  0
LINE
  5
2DE
330
2D3
100
AcDbEntity
  8
100
  6
Continuous
 62
     7
370
    30
100
AcDbLine
 10
40.121855
 20
122.753817
 30
0.0
 11
41.349128
 21
120.974271
 31
0.0
  0
LINE
  5
2DF
330
2D3
100
AcDbEntity
  8
100
  6
Continuous
 62
     7
370
    30
100
AcDbLine
 10
41.349128
 20
120.974271
 30
0.0
 11
40.980946
 21
119.44018
 31
0.0
  0
ENDBLK
  5
2D5
330
2D3
100
AcDbEntity
  8
0
100
AcDbBlockEnd
  0
BLOCK
  5
2E2
330
2E1
100
AcDbEntity
  8
0
100
AcDbBlockBegin
  2
G31
 70
     0
 10
0.0
 20
0.0
 30
0.0
  3
G31
  1

  0
LINE
  5
2E4
330
2E1
100
AcDbEntity
  8
100
  6
Continuous
 62
     7
370
    30
100
AcDbLine
 10
38.955946
 20
119.562908
 30
0.0
 11
37.483219
 21
120.053817
 31
0.0
  0
LINE
  5
2E5
330
2E1
100
AcDbEntity
  8
100
  6
Continuous
 62
     7
370
    30
100
AcDbLine
 10
37.483219
 20
120.053817
 30
0.0
 11
36.194582
 21
119.685635
 31
0.0
  0
ENDBLK
  5
2E3
330
2E1
100
AcDbEntity
  8
0
100
AcDbBlockEnd
  0
BLOCK
  5
2E8
330
2E7
100
AcDbEntity
  8
0
100
AcDbBlockBegin
  2
G32
 70
     0
 10
0.0
 20
0.0
 30
0.0
  3
G32
  1

  0
LINE
  5
2EA
330
2E7
100
AcDbEntity
  8
100
  6
Continuous
 62
     7
370
    30
100
AcDbLine
 10
44.110491
 20
110.787908
 30
0.0
 11
42.760491
 21
114.592453
 31
0.0
  0
LINE
  5
2EB
330
2E7
100
AcDbEntity
  8
100
  6
Continuous
 62
     7
370
    30
100
AcDbLine
 10
42.760491
 20
114.592453
 30
0.0
 11
42.515037
 21
121.46518
 31
0.0
  0
LINE
  5
2EC
330
2E7
100
AcDbEntity
  8
100
  6
Continuous
 62
     7
370
    30
100
AcDbLine
 10
42.515037
 20
121.46518
 30
0.0
 11
42.883219
 21
127.478817
 31
0.0
  0
LINE
  5
2ED
330
2E7
100
AcDbEntity
  8
100
  6
Continuous
 62
     7
370
    30
100
AcDbLine
 10
42.883219
 20
127.478817
 30
0.0
 11
46.810491
 21
134.96518
 31
0.0
  0
LINE
  5
2EE
330
2E7
100
AcDbEntity
  8
100
  6
Continuous
 62
     7
370
    30
100
AcDbLine
 10
46.810491
 20
134.96518
 30
0.0
 11
51.105946
 21
140.978817
 31
0.0
  0
LINE
  5
2EF
330
2E7
100
AcDbEntity
  8
100
  6
Continuous
 62
     7
370
    30
100
AcDbLine
 10
51.105946
 20
140.978817
 30
0.0
 11
57.119582
 21
147.483362
 31
0.0
  0
LINE
  5
2F0
330
2E7
100
AcDbEntity
  8
100
  6
Continuous
 62
     7
370
    30
100
AcDbLine
 10
57.119582
 20
147.483362
 30
0.0
 11
63.010491
 21
152.392453
 31
0.0
  0
LINE
  5
2F1
330
2E7
100
AcDbEntity
  8
100
  6
Continuous
 62
     7
370
    30
100
AcDbLine
 10
63.010491
 20
152.392453
 30
0.0
 11
69.637764
 21
156.074271
 31
0.0
  0
LINE
  5
2F2
330
2E7
100
AcDbEntity
  8
100
  6
Continuous
 62
     7
370
    30
100
AcDbLine
 10
69.637764
 20
156.074271
 30
0.0
 11
76.878673
 21
159.142453
 31
0.0
  0
LINE
  5
2F3
330
2E7
100
AcDbEntity
  8
100
  6
Continuous
 62
     7
370
    30
100
AcDbLine
 10
76.878673
 20
159.142453
 30
0.0
 11
87.310491
 21
161.596999
 31
0.0
  0
LINE
  5
2F4
330
2E7
100
AcDbEntity
  8
100
  6
Continuous
 62
     7
370
    30
100
AcDbLine
 10
87.310491
 20
161.596999
 30
0.0
 11
94.428673
 21
163.069726
 31
0.0
  0
LINE
  5
2F5
330
2E7
100
AcDbEntity
  8
100
  6
Continuous
 62
     7
370
    30
100
AcDbLine
 10
94.428673
 20
163.069726
 30
0.0
 11
102.528673
 21
163.192453
 31
0.0
  0
LINE
  5
2F6
330
2E7
100
AcDbEntity
  8
100
  6
Continuous
 62
     7
370
    30
100
AcDbLine
 10
102.528673
 20
163.192453
 30
0.0
 11
107.378597
 21
163.190186
 31
0.0
  0
ENDBLK
  5
2E9
330
2E7
100
AcDbEntity
  8
0
100
AcDbBlockEnd
  0
BLOCK
  5
2F9
330
2F8
100
AcDbEntity
  8
0
100
AcDbBlockBegin
  2
G33
 70
     0
 10
0.0
 20
0.0
 30
0.0
  3
G33
  1

  0
LINE
  5
2FB
330
2F8
100
AcDbEntity
  8
100
  6
Continuous
 62
     7
370
    30
100
AcDbLine
 10
114.271535
 20
162.810982
 30
0.0
 11
123.024128
 21
160.860635
 31
0.0
  0
LINE
  5
2FC
330
2F8
100
AcDbEntity
  8
100
  6
Continuous
 62
     7
370
    30
100
AcDbLine
 10
123.024128
 20
160.860635
 30
0.0
 11
129.160491
 21
158.037908
 31
0.0
  0
LINE
  5
2FD
330
2F8
100
AcDbEntity
  8
100
  6
Continuous
 62
     7
370
    30
100
AcDbLine
 10
129.160491
 20
158.037908
 30
0.0
 11
138.487764
 21
153.742453
 31
0.0
  0
LINE
  5
2FE
330
2F8
100
AcDbEntity
  8
100
  6
Continuous
 62
     7
370
    30
100
AcDbLine
 10
138.487764
 20
153.742453
 30
0.0
 11
144.010491
 21
149.569726
 31
0.0
  0
LINE
  5
2FF
330
2F8
100
AcDbEntity
  8
100
  6
Continuous
 62
     7
370
    30
100
AcDbLine
 10
144.010491
 20
149.569726
 30
0.0
 11
149.287764
 21
145.028817
 31
0.0
  0
LINE
  5
300
330
2F8
100
AcDbEntity
  8
100
  6
Continuous
 62
     7
370
    30
100
AcDbLine
 10
149.287764
 20
145.028817
 30
0.0
 11
154.319582
 21
138.524271
 31
0.0
  0
LINE
  5
301
330
2F8
100
AcDbEntity
  8
100
  6
Continuous
 62
     7
370
    30
100
AcDbLine
 10
154.319582
 20
138.524271
 30
0.0
 11
157.878673
 21
130.792453
 31
0.0
  0
LINE
  5
302
330
2F8
100
AcDbEntity
  8
100
  6
Continuous
 62
     7
370
    30
100
AcDbLine
 10
157.878673
 20
130.792453
 30
0.0
 11
159.228673
 21
124.901544
 31
0.0
  0
LINE
  5
303
330
2F8
100
AcDbEntity
  8
100
  6
Continuous
 62
     7
370
    30
100
AcDbLine
 10
159.228673
 20
124.901544
 30
0.0
 11
159.228673
 21
119.133362
 31
0.0
  0
LINE
  5
304
330
2F8
100
AcDbEntity
  8
100
  6
Continuous
 62
     7
370
    30
100
AcDbLine
 10
159.228673
 20
119.133362
 30
0.0
 11
159.075264
 21
116.06518
 31
0.0
  0
LINE
  5
305
330
2F8
100
AcDbEntity
  8
100
  6
Continuous
 62
     7
370
    30
100
AcDbLine
 10
159.075264
 20
116.06518
 30
0.0
 11
158.001401
 21
114.162908
 31
0.0
  0
ENDBLK
  5
2FA
330
2F8
100
AcDbEntity
  8
0
100
AcDbBlockEnd
  0
BLOCK
  5
308
330
307
100
AcDbEntity
  8
0
100
AcDbBlockBegin
  2
G34
 70
     0
 10
0.0
 20
0.0
 30
0.0
  3
G34
  1

  0
LINE
  5
30A
330
307
100
AcDbEntity
  8
100
  6
Continuous
 62
     7
370
    30
100
AcDbLine
 10
164.647392
 20
105.382168
 30
0.0
 11
166.561628
 21
108.394726
 31
0.0
  0
LINE
  5
30B
330
307
100
AcDbEntity
  8
100
  6
Continuous
 62
     7
370
    30
100
AcDbLine
 10
166.561628
 20
108.394726
 30
0.0
 11
168.27981
 21
113.242453
 31
0.0
  0
LINE
  5
30C
330
307
100
AcDbEntity
  8
100
  6
Continuous
 62
     7
370
    30
100
AcDbLine
 10
168.27981
 20
113.242453
 30
0.0
 11
169.813901
 21
120.421999
 31
0.0
  0
LINE
  5
30D
330
307
100
AcDbEntity
  8
100
  6
Continuous
 62
     7
370
    30
100
AcDbLine
 10
169.813901
 20
120.421999
 30
0.0
 11
169.936628
 21
125.269726
 31
0.0
  0
LINE
  5
30E
330
307
100
AcDbEntity
  8
100
  6
Continuous
 62
     7
370
    30
100
AcDbLine
 10
169.936628
 20
125.269726
 30
0.0
 11
169.077537
 21
134.412908
 31
0.0
  0
LINE
  5
30F
330
307
100
AcDbEntity
  8
100
  6
Continuous
 62
     7
370
    30
100
AcDbLine
 10
169.077537
 20
134.412908
 30
0.0
 11
165.641173
 21
142.512908
 31
0.0
  0
LINE
  5
310
330
307
100
AcDbEntity
  8
100
  6
Continuous
 62
     7
370
    30
100
AcDbLine
 10
165.641173
 20
142.512908
 30
0.0
 11
161.222991
 21
149.753817
 31
0.0
  0
LINE
  5
311
330
307
100
AcDbEntity
  8
100
  6
Continuous
 62
     7
370
    30
100
AcDbLine
 10
161.222991
 20
149.753817
 30
0.0
 11
156.313901
 21
155.031089
 31
0.0
  0
LINE
  5
312
330
307
100
AcDbEntity
  8
100
  6
Continuous
 62
     7
370
    30
100
AcDbLine
 10
156.313901
 20
155.031089
 30
0.0
 11
149.563901
 21
161.044726
 31
0.0
  0
LINE
  5
313
330
307
100
AcDbEntity
  8
100
  6
Continuous
 62
     7
370
    30
100
AcDbLine
 10
149.563901
 20
161.044726
 30
0.0
 11
136.186628
 21
167.671999
 31
0.0
  0
LINE
  5
314
330
307
100
AcDbEntity
  8
100
  6
Continuous
 62
     7
370
    30
100
AcDbLine
 10
136.186628
 20
167.671999
 30
0.0
 11
127.472991
 21
170.494726
 31
0.0
  0
LINE
  5
315
330
307
100
AcDbEntity
  8
100
  6
Continuous
 62
     7
370
    30
100
AcDbLine
 10
127.472991
 20
170.494726
 30
0.0
 11
117.409355
 21
172.826544
 31
0.0
  0
LINE
  5
316
330
307
100
AcDbEntity
  8
100
  6
Continuous
 62
     7
370
    30
100
AcDbLine
 10
117.409355
 20
172.826544
 30
0.0
 11
107.836628
 21
173.44018
 31
0.0
  0
LINE
  5
317
330
307
100
AcDbEntity
  8
100
  6
Continuous
 62
     7
370
    30
100
AcDbLine
 10
107.836628
 20
173.44018
 30
0.0
 11
99.122991
 21
173.44018
 31
0.0
  0
LINE
  5
318
330
307
100
AcDbEntity
  8
100
  6
Continuous
 62
     7
370
    30
100
AcDbLine
 10
99.122991
 20
173.44018
 30
0.0
 11
91.268446
 21
173.44018
 31
0.0
  0
LINE
  5
319
330
307
100
AcDbEntity
  8
100
  6
Continuous
 62
     7
370
    30
100
AcDbLine
 10
91.268446
 20
173.44018
 30
0.0
 11
83.291173
 21
171.844726
 31
0.0
  0
LINE
  5
31A
330
307
100
AcDbEntity
  8
100
  6
Continuous
 62
     7
370
    30
100
AcDbLine
 10
83.291173
 20
171.844726
 30
0.0
 11
74.945719
 21
169.39018
 31
0.0
  0
LINE
  5
31B
330
307
100
AcDbEntity
  8
100
  6
Continuous
 62
     7
370
    30
100
AcDbLine
 10
74.945719
 20
169.39018
 30
0.0
 11
66.722991
 21
166.076544
 31
0.0
  0
LINE
  5
31C
330
307
100
AcDbEntity
  8
100
  6
Continuous
 62
     7
370
    30
100
AcDbLine
 10
66.722991
 20
166.076544
 30
0.0
 11
59.359355
 21
163.008362
 31
0.0
  0
LINE
  5
31D
330
307
100
AcDbEntity
  8
100
  6
Continuous
 62
     7
370
    30
100
AcDbLine
 10
59.359355
 20
163.008362
 30
0.0
 11
51.995719
 21
158.467453
 31
0.0
  0
LINE
  5
31E
330
307
100
AcDbEntity
  8
100
  6
Continuous
 62
     7
370
    30
100
AcDbLine
 10
51.995719
 20
158.467453
 30
0.0
 11
43.895719
 21
151.594726
 31
0.0
  0
LINE
  5
31F
330
307
100
AcDbEntity
  8
100
  6
Continuous
 62
     7
370
    30
100
AcDbLine
 10
43.895719
 20
151.594726
 30
0.0
 11
39.600264
 21
146.071999
 31
0.0
  0
LINE
  5
320
330
307
100
AcDbEntity
  8
100
  6
Continuous
 62
     7
370
    30
100
AcDbLine
 10
39.600264
 20
146.071999
 30
0.0
 11
34.936628
 21
138.217453
 31
0.0
  0
LINE
  5
321
330
307
100
AcDbEntity
  8
100
  6
Continuous
 62
     7
370
    30
100
AcDbLine
 10
34.936628
 20
138.217453
 30
0.0
 11
32.113901
 21
131.344726
 31
0.0
  0
LINE
  5
322
330
307
100
AcDbEntity
  8
100
  6
Continuous
 62
     7
370
    30
100
AcDbLine
 10
32.113901
 20
131.344726
 30
0.0
 11
30.641173
 21
125.331089
 31
0.0
  0
LINE
  5
323
330
307
100
AcDbEntity
  8
100
  6
Continuous
 62
     7
370
    30
100
AcDbLine
 10
30.641173
 20
125.331089
 30
0.0
 11
30.518446
 21
118.09018
 31
0.0
  0
LINE
  5
324
330
307
100
AcDbEntity
  8
100
  6
Continuous
 62
     7
370
    30
100
AcDbLine
 10
30.518446
 20
118.09018
 30
0.0
 11
30.886628
 21
113.303817
 31
0.0
  0
LINE
  5
325
330
307
100
AcDbEntity
  8
100
  6
Continuous
 62
     7
370
    30
100
AcDbLine
 10
30.886628
 20
113.303817
 30
0.0
 11
31.991173
 21
108.394726
 31
0.0
  0
LINE
  5
326
330
307
100
AcDbEntity
  8
100
  6
Continuous
 62
     7
370
    30
100
AcDbLine
 10
31.991173
 20
108.394726
 30
0.0
 11
33.934147
 21
104.949604
 31
0.0
  0
ENDBLK
  5
309
330
307
100
AcDbEntity
  8
0
100
AcDbBlockEnd
  0
BLOCK
  5
329
330
328
100
AcDbEntity
  8
0
100
AcDbBlockBegin
  2
G35
 70
     0
 10
0.0
 20
0.0
 30
0.0
  3
G35
  1

  0
LINE
  5
32B
330
328
100
AcDbEntity
  8
100
  6
Continuous
 62
     7
370
    30
100
AcDbLine
 10
31.25481
 20
105.878817
 30
0.0
 11
29.782082
 21
108.578817
 31
0.0
  0
LINE
  5
32C
330
328
100
AcDbEntity
  8
100
  6
Continuous
 62
     7
370
    30
100
AcDbLine
 10
29.782082
 20
108.578817
 30
0.0
 11
28.922991
 21
112.076544
 31
0.0
  0
LINE
  5
32D
330
328
100
AcDbEntity
  8
100
  6
Continuous
 62
     7
370
    30
100
AcDbLine
 10
28.922991
 20
112.076544
 30
0.0
 11
28.063901
 21
116.06518
 31
0.0
  0
LINE
  5
32E
330
328
100
AcDbEntity
  8
100
  6
Continuous
 62
     7
370
    30
100
AcDbLine
 10
28.063901
 20
116.06518
 30
0.0
 11
27.87981
 21
119.746999
 31
0.0
  0
LINE
  5
32F
330
328
100
AcDbEntity
  8
100
  6
Continuous
 62
     7
370
    30
100
AcDbLine
 10
27.87981
 20
119.746999
 30
0.0
 11
28.063901
 21
124.901544
 31
0.0
  0
LINE
  5
330
330
328
100
AcDbEntity
  8
100
  6
Continuous
 62
     7
370
    30
100
AcDbLine
 10
28.063901
 20
124.901544
 30
0.0
 11
29.291173
 21
131.406089
 31
0.0
  0
LINE
  5
331
330
328
100
AcDbEntity
  8
100
  6
Continuous
 62
     7
370
    30
100
AcDbLine
 10
29.291173
 20
131.406089
 30
0.0
 11
31.132082
 21
135.946999
 31
0.0
  0
LINE
  5
332
330
328
100
AcDbEntity
  8
100
  6
Continuous
 62
     7
370
    30
100
AcDbLine
 10
31.132082
 20
135.946999
 30
0.0
 11
34.322991
 21
143.678817
 31
0.0
  0
LINE
  5
333
330
328
100
AcDbEntity
  8
100
  6
Continuous
 62
     7
370
    30
100
AcDbLine
 10
34.322991
 20
143.678817
 30
0.0
 11
39.35481
 21
150.306089
 31
0.0
  0
LINE
  5
334
330
328
100
AcDbEntity
  8
100
  6
Continuous
 62
     7
370
    30
100
AcDbLine
 10
39.35481
 20
150.306089
 30
0.0
 11
43.282082
 21
154.478817
 31
0.0
  0
LINE
  5
335
330
328
100
AcDbEntity
  8
100
  6
Continuous
 62
     7
370
    30
100
AcDbLine
 10
43.282082
 20
154.478817
 30
0.0
 11
48.682082
 21
159.387908
 31
0.0
  0
LINE
  5
336
330
328
100
AcDbEntity
  8
100
  6
Continuous
 62
     7
370
    30
100
AcDbLine
 10
48.682082
 20
159.387908
 30
0.0
 11
54.941173
 21
163.31518
 31
0.0
  0
LINE
  5
337
330
328
100
AcDbEntity
  8
100
  6
Continuous
 62
     7
370
    30
100
AcDbLine
 10
54.941173
 20
163.31518
 30
0.0
 11
61.813901
 21
167.487908
 31
0.0
  0
LINE
  5
338
330
328
100
AcDbEntity
  8
100
  6
Continuous
 62
     7
370
    30
100
AcDbLine
 10
61.813901
 20
167.487908
 30
0.0
 11
68.195719
 21
169.942453
 31
0.0
  0
LINE
  5
339
330
328
100
AcDbEntity
  8
100
  6
Continuous
 62
     7
370
    30
100
AcDbLine
 10
68.195719
 20
169.942453
 30
0.0
 11
76.172991
 21
172.519726
 31
0.0
  0
LINE
  5
33A
330
328
100
AcDbEntity
  8
100
  6
Continuous
 62
     7
370
    30
100
AcDbLine
 10
76.172991
 20
172.519726
 30
0.0
 11
85.500264
 21
174.974271
 31
0.0
  0
LINE
  5
33B
330
328
100
AcDbEntity
  8
100
  6
Continuous
 62
     7
370
    30
100
AcDbLine
 10
85.500264
 20
174.974271
 30
0.0
 11
96.300264
 21
175.956089
 31
0.0
  0
LINE
  5
33C
330
328
100
AcDbEntity
  8
100
  6
Continuous
 62
     7
370
    30
100
AcDbLine
 10
96.300264
 20
175.956089
 30
0.0
 11
106.732082
 21
176.692453
 31
0.0
  0
LINE
  5
33D
330
328
100
AcDbEntity
  8
100
  6
Continuous
 62
     7
370
    30
100
AcDbLine
 10
106.732082
 20
176.692453
 30
0.0
 11
116.918446
 21
175.833362
 31
0.0
  0
LINE
  5
33E
330
328
100
AcDbEntity
  8
100
  6
Continuous
 62
     7
370
    30
100
AcDbLine
 10
116.918446
 20
175.833362
 30
0.0
 11
126.000264
 21
173.869726
 31
0.0
  0
LINE
  5
33F
330
328
100
AcDbEntity
  8
100
  6
Continuous
 62
     7
370
    30
100
AcDbLine
 10
126.000264
 20
173.869726
 30
0.0
 11
135.082082
 21
170.924271
 31
0.0
  0
LINE
  5
340
330
328
100
AcDbEntity
  8
100
  6
Continuous
 62
     7
370
    30
100
AcDbLine
 10
135.082082
 20
170.924271
 30
0.0
 11
143.918446
 21
166.996999
 31
0.0
  0
LINE
  5
341
330
328
100
AcDbEntity
  8
100
  6
Continuous
 62
     7
370
    30
100
AcDbLine
 10
143.918446
 20
166.996999
 30
0.0
 11
153.368446
 21
161.596999
 31
0.0
  0
LINE
  5
342
330
328
100
AcDbEntity
  8
100
  6
Continuous
 62
     7
370
    30
100
AcDbLine
 10
153.368446
 20
161.596999
 30
0.0
 11
159.013901
 21
156.933362
 31
0.0
  0
LINE
  5
343
330
328
100
AcDbEntity
  8
100
  6
Continuous
 62
     7
370
    30
100
AcDbLine
 10
159.013901
 20
156.933362
 30
0.0
 11
164.536628
 21
150.674271
 31
0.0
  0
LINE
  5
344
330
328
100
AcDbEntity
  8
100
  6
Continuous
 62
     7
370
    30
100
AcDbLine
 10
164.536628
 20
150.674271
 30
0.0
 11
168.586628
 21
143.433362
 31
0.0
  0
LINE
  5
345
330
328
100
AcDbEntity
  8
100
  6
Continuous
 62
     7
370
    30
100
AcDbLine
 10
168.586628
 20
143.433362
 30
0.0
 11
172.145719
 21
137.051544
 31
0.0
  0
LINE
  5
346
330
328
100
AcDbEntity
  8
100
  6
Continuous
 62
     7
370
    30
100
AcDbLine
 10
172.145719
 20
137.051544
 30
0.0
 11
173.863901
 21
129.687908
 31
0.0
  0
LINE
  5
347
330
328
100
AcDbEntity
  8
100
  6
Continuous
 62
     7
370
    30
100
AcDbLine
 10
173.863901
 20
129.687908
 30
0.0
 11
174.477537
 21
122.81518
 31
0.0
  0
LINE
  5
348
330
328
100
AcDbEntity
  8
100
  6
Continuous
 62
     7
370
    30
100
AcDbLine
 10
174.477537
 20
122.81518
 30
0.0
 11
174.232082
 21
115.819726
 31
0.0
  0
LINE
  5
349
330
328
100
AcDbEntity
  8
100
  6
Continuous
 62
     7
370
    30
100
AcDbLine
 10
174.232082
 20
115.819726
 30
0.0
 11
172.268446
 21
109.192453
 31
0.0
  0
LINE
  5
34A
330
328
100
AcDbEntity
  8
100
  6
Continuous
 62
     7
370
    30
100
AcDbLine
 10
172.268446
 20
109.192453
 30
0.0
 11
170.30481
 21
105.633362
 31
0.0
  0
LINE
  5
34B
330
328
100
AcDbEntity
  8
100
  6
Continuous
 62
     7
370
    30
100
AcDbLine
 10
170.30481
 20
105.633362
 30
0.0
 11
167.972991
 21
103.056089
 31
0.0
  0
LINE
  5
34C
330
328
100
AcDbEntity
  8
100
  6
Continuous
 62
     7
370
    30
100
AcDbLine
 10
167.972991
 20
103.056089
 30
0.0
 11
164.879868
 21
99.926544
 31
0.0
  0
ENDBLK
  5
32A
330
328
100
AcDbEntity
  8
0
100
AcDbBlockEnd
  0
BLOCK
  5
34F
330
34E
100
AcDbEntity
  8
0
100
AcDbBlockBegin
  2
G36
 70
     0
 10
0.0
 20
0.0
 30
0.0
  3
G36
  1

  0
LINE
  5
351
330
34E
100
AcDbEntity
  8
100
  6
Continuous
 62
     7
370
    30
100
AcDbLine
 10
164.773121
 20
102.431612
 30
0.0
 11
167.60481
 21
106.369726
 31
0.0
  0
LINE
  5
352
330
34E
100
AcDbEntity
  8
100
  6
Continuous
 62
     7
370
    30
100
AcDbLine
 10
167.60481
 20
106.369726
 30
0.0
 11
170.550264
 21
113.733362
 31
0.0
  0
LINE
  5
353
330
34E
100
AcDbEntity
  8
100
  6
Continuous
 62
     7
370
    30
100
AcDbLine
 10
170.550264
 20
113.733362
 30
0.0
 11
171.900264
 21
122.692453
 31
0.0
  0
LINE
  5
354
330
34E
100
AcDbEntity
  8
100
  6
Continuous
 62
     7
370
    30
100
AcDbLine
 10
171.900264
 20
122.692453
 30
0.0
 11
171.041173
 21
133.001544
 31
0.0
  0
LINE
  5
355
330
34E
100
AcDbEntity
  8
100
  6
Continuous
 62
     7
370
    30
100
AcDbLine
 10
171.041173
 20
133.001544
 30
0.0
 11
169.077537
 21
138.278817
 31
0.0
  0
LINE
  5
356
330
34E
100
AcDbEntity
  8
100
  6
Continuous
 62
     7
370
    30
100
AcDbLine
 10
169.077537
 20
138.278817
 30
0.0
 11
165.886628
 21
144.537908
 31
0.0
  0
ENDBLK
  5
350
330
34E
100
AcDbEntity
  8
0
100
AcDbBlockEnd
  0
BLOCK
  5
359
330
358
100
AcDbEntity
  8
0
100
AcDbBlockBegin
  2
G37
 70
     0
 10
0.0
 20
0.0
 30
0.0
  3
G37
  1

  0
LINE
  5
35B
330
358
100
AcDbEntity
  8
100
  6
Continuous
 62
     7
370
    30
100
AcDbLine
 10
28.708124
 20
128.315927
 30
0.0
 11
27.941173
 21
145.396999
 31
0.0
  0
LINE
  5
35C
330
358
100
AcDbEntity
  8
100
  6
Continuous
 62
     7
370
    30
100
AcDbLine
 10
27.941173
 20
145.396999
 30
0.0
 11
29.413901
 21
150.674271
 31
0.0
  0
LINE
  5
35D
330
358
100
AcDbEntity
  8
100
  6
Continuous
 62
     7
370
    30
100
AcDbLine
 10
29.413901
 20
150.674271
 30
0.0
 11
33.218446
 21
158.160635
 31
0.0
  0
LINE
  5
35E
330
358
100
AcDbEntity
  8
100
  6
Continuous
 62
     7
370
    30
100
AcDbLine
 10
33.218446
 20
158.160635
 30
0.0
 11
39.600264
 21
167.856089
 31
0.0
  0
LINE
  5
35F
330
358
100
AcDbEntity
  8
100
  6
Continuous
 62
     7
370
    30
100
AcDbLine
 10
39.600264
 20
167.856089
 30
0.0
 11
47.945719
 21
176.201544
 31
0.0
  0
LINE
  5
360
330
358
100
AcDbEntity
  8
100
  6
Continuous
 62
     7
370
    30
100
AcDbLine
 10
47.945719
 20
176.201544
 30
0.0
 11
57.272991
 21
182.583362
 31
0.0
  0
LINE
  5
361
330
358
100
AcDbEntity
  8
100
  6
Continuous
 62
     7
370
    30
100
AcDbLine
 10
57.272991
 20
182.583362
 30
0.0
 11
67.336628
 21
187.737908
 31
0.0
  0
LINE
  5
362
330
358
100
AcDbEntity
  8
100
  6
Continuous
 62
     7
370
    30
100
AcDbLine
 10
67.336628
 20
187.737908
 30
0.0
 11
79.118446
 21
191.787908
 31
0.0
  0
LINE
  5
363
330
358
100
AcDbEntity
  8
100
  6
Continuous
 62
     7
370
    30
100
AcDbLine
 10
79.118446
 20
191.787908
 30
0.0
 11
92.250264
 21
193.506089
 31
0.0
  0
LINE
  5
364
330
358
100
AcDbEntity
  8
100
  6
Continuous
 62
     7
370
    30
100
AcDbLine
 10
92.250264
 20
193.506089
 30
0.0
 11
104.277537
 21
193.996999
 31
0.0
  0
LINE
  5
365
330
358
100
AcDbEntity
  8
100
  6
Continuous
 62
     7
370
    30
100
AcDbLine
 10
104.277537
 20
193.996999
 30
0.0
 11
116.550264
 21
193.628817
 31
0.0
  0
LINE
  5
366
330
358
100
AcDbEntity
  8
100
  6
Continuous
 62
     7
370
    30
100
AcDbLine
 10
116.550264
 20
193.628817
 30
0.0
 11
130.541173
 21
190.31518
 31
0.0
  0
LINE
  5
367
330
358
100
AcDbEntity
  8
100
  6
Continuous
 62
     7
370
    30
100
AcDbLine
 10
130.541173
 20
190.31518
 30
0.0
 11
140.236628
 21
186.142453
 31
0.0
  0
LINE
  5
368
330
358
100
AcDbEntity
  8
100
  6
Continuous
 62
     7
370
    30
100
AcDbLine
 10
140.236628
 20
186.142453
 30
0.0
 11
149.072991
 21
180.86518
 31
0.0
  0
LINE
  5
369
330
358
100
AcDbEntity
  8
100
  6
Continuous
 62
     7
370
    30
100
AcDbLine
 10
149.072991
 20
180.86518
 30
0.0
 11
157.418446
 21
173.992453
 31
0.0
  0
LINE
  5
36A
330
358
100
AcDbEntity
  8
100
  6
Continuous
 62
     7
370
    30
100
AcDbLine
 10
157.418446
 20
173.992453
 30
0.0
 11
164.413901
 21
166.996999
 31
0.0
  0
LINE
  5
36B
330
358
100
AcDbEntity
  8
100
  6
Continuous
 62
     7
370
    30
100
AcDbLine
 10
164.413901
 20
166.996999
 30
0.0
 11
169.200264
 21
160.246999
 31
0.0
  0
LINE
  5
36C
330
358
100
AcDbEntity
  8
100
  6
Continuous
 62
     7
370
    30
100
AcDbLine
 10
169.200264
 20
160.246999
 30
0.0
 11
172.513901
 21
153.619726
 31
0.0
  0
LINE
  5
36D
330
358
100
AcDbEntity
  8
100
  6
Continuous
 62
     7
370
    30
100
AcDbLine
 10
172.513901
 20
153.619726
 30
0.0
 11
174.109355
 21
146.624271
 31
0.0
  0
LINE
  5
36E
330
358
100
AcDbEntity
  8
100
  6
Continuous
 62
     7
370
    30
100
AcDbLine
 10
174.109355
 20
146.624271
 30
0.0
 11
174.600264
 21
142.328817
 31
0.0
  0
LINE
  5
36F
330
358
100
AcDbEntity
  8
100
  6
Continuous
 62
     7
370
    30
100
AcDbLine
 10
174.600264
 20
142.328817
 30
0.0
 11
174.722991
 21
136.069726
 31
0.0
  0
LINE
  5
370
330
358
100
AcDbEntity
  8
100
  6
Continuous
 62
     7
370
    30
100
AcDbLine
 10
174.722991
 20
136.069726
 30
0.0
 11
173.525334
 21
131.138909
 31
0.0
  0
ENDBLK
  5
35A
330
358
100
AcDbEntity
  8
0
100
AcDbBlockEnd
  0
BLOCK
  5
373
330
372
100
AcDbEntity
  8
0
100
AcDbBlockBegin
  2
G38
 70
     0
 10
0.0
 20
0.0
 30
0.0
  3
G38
  1

  0
LINE
  5
375
330
372
100
AcDbEntity
  8
100
  6
Continuous
 62
     7
370
    30
100
AcDbLine
 10
170.30481
 20
105.633362
 30
0.0
 11
174.600264
 21
110.787908
 31
0.0
  0
LINE
  5
376
330
372
100
AcDbEntity
  8
100
  6
Continuous
 62
     7
370
    30
100
AcDbLine
 10
174.600264
 20
110.787908
 30
0.0
 11
180.122991
 21
119.624271
 31
0.0
  0
LINE
  5
377
330
372
100
AcDbEntity
  8
100
  6
Continuous
 62
     7
370
    30
100
AcDbLine
 10
180.122991
 20
119.624271
 30
0.0
 11
183.436628
 21
128.092453
 31
0.0
  0
LINE
  5
378
330
372
100
AcDbEntity
  8
100
  6
Continuous
 62
     7
370
    30
100
AcDbLine
 10
183.436628
 20
128.092453
 30
0.0
 11
185.891173
 21
138.769726
 31
0.0
  0
LINE
  5
379
330
372
100
AcDbEntity
  8
100
  6
Continuous
 62
     7
370
    30
100
AcDbLine
 10
185.891173
 20
138.769726
 30
0.0
 11
186.013901
 21
147.606089
 31
0.0
  0
LINE
  5
37A
330
372
100
AcDbEntity
  8
100
  6
Continuous
 62
     7
370
    30
100
AcDbLine
 10
186.013901
 20
147.606089
 30
0.0
 11
184.418446
 21
155.951544
 31
0.0
  0
LINE
  5
37B
330
372
100
AcDbEntity
  8
100
  6
Continuous
 62
     7
370
    30
100
AcDbLine
 10
184.418446
 20
155.951544
 30
0.0
 11
183.191173
 21
161.474271
 31
0.0
  0
LINE
  5
37C
330
372
100
AcDbEntity
  8
100
  6
Continuous
 62
     7
370
    30
100
AcDbLine
 10
183.191173
 20
161.474271
 30
0.0
 11
180.000264
 21
169.083362
 31
0.0
  0
LINE
  5
37D
330
372
100
AcDbEntity
  8
100
  6
Continuous
 62
     7
370
    30
100
AcDbLine
 10
180.000264
 20
169.083362
 30
0.0
 11
174.109355
 21
179.146999
 31
0.0
  0
LINE
  5
37E
330
372
100
AcDbEntity
  8
100
  6
Continuous
 62
     7
370
    30
100
AcDbLine
 10
174.109355
 20
179.146999
 30
0.0
 11
167.850264
 21
186.142453
 31
0.0
  0
LINE
  5
37F
330
372
100
AcDbEntity
  8
100
  6
Continuous
 62
     7
370
    30
100
AcDbLine
 10
167.850264
 20
186.142453
 30
0.0
 11
160.486628
 21
192.646999
 31
0.0
  0
LINE
  5
380
330
372
100
AcDbEntity
  8
100
  6
Continuous
 62
     7
370
    30
100
AcDbLine
 10
160.486628
 20
192.646999
 30
0.0
 11
150.300264
 21
199.028817
 31
0.0
  0
LINE
  5
381
330
372
100
AcDbEntity
  8
100
  6
Continuous
 62
     7
370
    30
100
AcDbLine
 10
150.300264
 20
199.028817
 30
0.0
 11
138.518446
 21
204.551544
 31
0.0
  0
LINE
  5
382
330
372
100
AcDbEntity
  8
100
  6
Continuous
 62
     7
370
    30
100
AcDbLine
 10
138.518446
 20
204.551544
 30
0.0
 11
124.527537
 21
209.092453
 31
0.0
  0
LINE
  5
383
330
372
100
AcDbEntity
  8
100
  6
Continuous
 62
     7
370
    30
100
AcDbLine
 10
124.527537
 20
209.092453
 30
0.0
 11
113.482082
 21
210.196999
 31
0.0
  0
LINE
  5
384
330
372
100
AcDbEntity
  8
100
  6
Continuous
 62
     7
370
    30
100
AcDbLine
 10
113.482082
 20
210.196999
 30
0.0
 11
94.827537
 21
210.687908
 31
0.0
  0
LINE
  5
385
330
372
100
AcDbEntity
  8
100
  6
Continuous
 62
     7
370
    30
100
AcDbLine
 10
94.827537
 20
210.687908
 30
0.0
 11
86.850264
 21
210.074271
 31
0.0
  0
LINE
  5
386
330
372
100
AcDbEntity
  8
100
  6
Continuous
 62
     7
370
    30
100
AcDbLine
 10
86.850264
 20
210.074271
 30
0.0
 11
74.577537
 21
207.742453
 31
0.0
  0
LINE
  5
387
330
372
100
AcDbEntity
  8
100
  6
Continuous
 62
     7
370
    30
100
AcDbLine
 10
74.577537
 20
207.742453
 30
0.0
 11
60.586628
 21
202.096999
 31
0.0
  0
LINE
  5
388
330
372
100
AcDbEntity
  8
100
  6
Continuous
 62
     7
370
    30
100
AcDbLine
 10
60.586628
 20
202.096999
 30
0.0
 11
48.559355
 21
196.328817
 31
0.0
  0
LINE
  5
389
330
372
100
AcDbEntity
  8
100
  6
Continuous
 62
     7
370
    30
100
AcDbLine
 10
48.559355
 20
196.328817
 30
0.0
 11
39.722991
 21
189.087908
 31
0.0
  0
LINE
  5
38A
330
372
100
AcDbEntity
  8
100
  6
Continuous
 62
     7
370
    30
100
AcDbLine
 10
39.722991
 20
189.087908
 30
0.0
 11
32.850264
 21
182.337908
 31
0.0
  0
LINE
  5
38B
330
372
100
AcDbEntity
  8
100
  6
Continuous
 62
     7
370
    30
100
AcDbLine
 10
32.850264
 20
182.337908
 30
0.0
 11
22.786628
 21
169.206089
 31
0.0
  0
LINE
  5
38C
330
372
100
AcDbEntity
  8
100
  6
Continuous
 62
     7
370
    30
100
AcDbLine
 10
22.786628
 20
169.206089
 30
0.0
 11
19.10481
 21
159.633362
 31
0.0
  0
LINE
  5
38D
330
372
100
AcDbEntity
  8
100
  6
Continuous
 62
     7
370
    30
100
AcDbLine
 10
19.10481
 20
159.633362
 30
0.0
 11
16.282082
 21
148.096999
 31
0.0
  0
LINE
  5
38E
330
372
100
AcDbEntity
  8
100
  6
Continuous
 62
     7
370
    30
100
AcDbLine
 10
16.282082
 20
148.096999
 30
0.0
 11
16.036628
 21
137.051544
 31
0.0
  0
LINE
  5
38F
330
372
100
AcDbEntity
  8
100
  6
Continuous
 62
     7
370
    30
100
AcDbLine
 10
16.036628
 20
137.051544
 30
0.0
 11
17.632082
 21
126.86518
 31
0.0
  0
LINE
  5
390
330
372
100
AcDbEntity
  8
100
  6
Continuous
 62
     7
370
    30
100
AcDbLine
 10
17.632082
 20
126.86518
 30
0.0
 11
21.682082
 21
116.556089
 31
0.0
  0
LINE
  5
391
330
372
100
AcDbEntity
  8
100
  6
Continuous
 62
     7
370
    30
100
AcDbLine
 10
21.682082
 20
116.556089
 30
0.0
 11
26.222991
 21
109.560635
 31
0.0
  0
LINE
  5
392
330
372
100
AcDbEntity
  8
100
  6
Continuous
 62
     7
370
    30
100
AcDbLine
 10
26.222991
 20
109.560635
 30
0.0
 11
30.272991
 21
103.91518
 31
0.0
  0
LINE
  5
393
330
372
100
AcDbEntity
  8
100
  6
Continuous
 62
     7
370
    30
100
AcDbLine
 10
30.272991
 20
103.91518
 30
0.0
 11
33.738443
 21
99.926544
 31
0.0
  0
ENDBLK
  5
374
330
372
100
AcDbEntity
  8
0
100
AcDbBlockEnd
  0
BLOCK
  5
396
330
395
100
AcDbEntity
  8
0
100
AcDbBlockBegin
  2
G39
 70
     0
 10
0.0
 20
0.0
 30
0.0
  3
G39
  1

  0
LINE
  5
398
330
395
100
AcDbEntity
  8
100
  6
Continuous
 62
     7
370
    30
100
AcDbLine
 10
31.316173
 20
169.451544
 30
0.0
 11
33.034355
 21
168.162908
 31
0.0
  0
LINE
  5
399
330
395
100
AcDbEntity
  8
100
  6
Continuous
 62
     7
370
    30
100
AcDbLine
 10
33.034355
 20
168.162908
 30
0.0
 11
33.832082
 21
166.137908
 31
0.0
  0
LINE
  5
39A
330
395
100
AcDbEntity
  8
100
  6
Continuous
 62
     7
370
    30
100
AcDbLine
 10
33.832082
 20
166.137908
 30
0.0
 11
33.402537
 21
164.603817
 31
0.0
  0
LINE
  5
39B
330
395
100
AcDbEntity
  8
100
  6
Continuous
 62
     7
370
    30
100
AcDbLine
 10
33.402537
 20
164.603817
 30
0.0
 11
31.500264
 21
163.744726
 31
0.0
  0
LINE
  5
39C
330
395
100
AcDbEntity
  8
100
  6
Continuous
 62
     7
370
    30
100
AcDbLine
 10
31.500264
 20
163.744726
 30
0.0
 11
29.782082
 21
163.867453
 31
0.0
  0
LINE
  5
39D
330
395
100
AcDbEntity
  8
100
  6
Continuous
 62
     7
370
    30
100
AcDbLine
 10
29.782082
 20
163.867453
 30
0.0
 11
28.063901
 21
164.481089
 31
0.0
  0
LINE
  5
39E
330
395
100
AcDbEntity
  8
100
  6
Continuous
 62
     7
370
    30
100
AcDbLine
 10
28.063901
 20
164.481089
 30
0.0
 11
26.959355
 21
165.462908
 31
0.0
  0
LINE
  5
39F
330
395
100
AcDbEntity
  8
100
  6
Continuous
 62
     7
370
    30
100
AcDbLine
 10
26.959355
 20
165.462908
 30
0.0
 11
26.836628
 21
166.935635
 31
0.0
  0
LINE
  5
3A0
330
395
100
AcDbEntity
  8
100
  6
Continuous
 62
     7
370
    30
100
AcDbLine
 10
26.836628
 20
166.935635
 30
0.0
 11
27.450264
 21
168.285635
 31
0.0
  0
LINE
  5
3A1
330
395
100
AcDbEntity
  8
100
  6
Continuous
 62
     7
370
    30
100
AcDbLine
 10
27.450264
 20
168.285635
 30
0.0
 11
28.861628
 21
169.206089
 31
0.0
  0
LINE
  5
3A2
330
395
100
AcDbEntity
  8
100
  6
Continuous
 62
     7
370
    30
100
AcDbLine
 10
28.861628
 20
169.206089
 30
0.0
 11
31.316173
 21
169.451544
 31
0.0
  0
ENDBLK
  5
397
330
395
100
AcDbEntity
  8
0
100
AcDbBlockEnd
  0
BLOCK
  5
3A5
330
3A4
100
AcDbEntity
  8
0
100
AcDbBlockBegin
  2
G40
 70
     0
 10
0.0
 20
0.0
 30
0.0
  3
G40
  1

  0
LINE
  5
3A7
330
3A4
100
AcDbEntity
  8
100
  6
Continuous
 62
     7
370
    30
100
AcDbLine
 10
32.229264
 20
168.766726
 30
0.0
 11
33.832082
 21
167.978817
 31
0.0
  0
LINE
  5
3A8
330
3A4
100
AcDbEntity
  8
100
  6
Continuous
 62
     7
370
    30
100
AcDbLine
 10
33.832082
 20
167.978817
 30
0.0
 11
34.752537
 21
166.260635
 31
0.0
  0
LINE
  5
3A9
330
3A4
100
AcDbEntity
  8
100
  6
Continuous
 62
     7
370
    30
100
AcDbLine
 10
34.752537
 20
166.260635
 30
0.0
 11
34.568446
 21
164.419726
 31
0.0
  0
LINE
  5
3AA
330
3A4
100
AcDbEntity
  8
100
  6
Continuous
 62
     7
370
    30
100
AcDbLine
 10
34.568446
 20
164.419726
 30
0.0
 11
33.770719
 21
163.131089
 31
0.0
  0
LINE
  5
3AB
330
3A4
100
AcDbEntity
  8
100
  6
Continuous
 62
     7
370
    30
100
AcDbLine
 10
33.770719
 20
163.131089
 30
0.0
 11
31.745719
 21
162.517453
 31
0.0
  0
LINE
  5
3AC
330
3A4
100
AcDbEntity
  8
100
  6
Continuous
 62
     7
370
    30
100
AcDbLine
 10
31.745719
 20
162.517453
 30
0.0
 11
29.597991
 21
162.517453
 31
0.0
  0
LINE
  5
3AD
330
3A4
100
AcDbEntity
  8
100
  6
Continuous
 62
     7
370
    30
100
AcDbLine
 10
29.597991
 20
162.517453
 30
0.0
 11
26.652537
 21
163.560635
 31
0.0
  0
LINE
  5
3AE
330
3A4
100
AcDbEntity
  8
100
  6
Continuous
 62
     7
370
    30
100
AcDbLine
 10
26.652537
 20
163.560635
 30
0.0
 11
25.793446
 21
164.603817
 31
0.0
  0
LINE
  5
3AF
330
3A4
100
AcDbEntity
  8
100
  6
Continuous
 62
     7
370
    30
100
AcDbLine
 10
25.793446
 20
164.603817
 30
0.0
 11
25.609355
 21
166.383362
 31
0.0
  0
LINE
  5
3B0
330
3A4
100
AcDbEntity
  8
100
  6
Continuous
 62
     7
370
    30
100
AcDbLine
 10
25.609355
 20
166.383362
 30
0.0
 11
25.609355
 21
167.917453
 31
0.0
  0
LINE
  5
3B1
330
3A4
100
AcDbEntity
  8
100
  6
Continuous
 62
     7
370
    30
100
AcDbLine
 10
25.609355
 20
167.917453
 30
0.0
 11
26.407082
 21
168.837908
 31
0.0
  0
LINE
  5
3B2
330
3A4
100
AcDbEntity
  8
100
  6
Continuous
 62
     7
370
    30
100
AcDbLine
 10
26.407082
 20
168.837908
 30
0.0
 11
28.861628
 21
169.206089
 31
0.0
  0
ENDBLK
  5
3A6
330
3A4
100
AcDbEntity
  8
0
100
AcDbBlockEnd
  0
BLOCK
  5
3B5
330
3B4
100
AcDbEntity
  8
0
100
AcDbBlockBegin
  2
G41
 70
     0
 10
0.0
 20
0.0
 30
0.0
  3
G41
  1

  0
LINE
  5
3B7
330
3B4
100
AcDbEntity
  8
100
  6
Continuous
 62
     7
370
    30
100
AcDbLine
 10
181.626401
 20
158.989044
 30
0.0
 11
181.380946
 21
157.393589
 31
0.0
  0
LINE
  5
3B8
330
3B4
100
AcDbEntity
  8
100
  6
Continuous
 62
     7
370
    30
100
AcDbLine
 10
181.380946
 20
157.393589
 30
0.0
 11
180.153673
 21
156.104953
 31
0.0
  0
LINE
  5
3B9
330
3B4
100
AcDbEntity
  8
100
  6
Continuous
 62
     7
370
    30
100
AcDbLine
 10
180.153673
 20
156.104953
 30
0.0
 11
177.760491
 21
155.307226
 31
0.0
  0
LINE
  5
3BA
330
3B4
100
AcDbEntity
  8
100
  6
Continuous
 62
     7
370
    30
100
AcDbLine
 10
177.760491
 20
155.307226
 30
0.0
 11
175.36731
 21
155.429953
 31
0.0
  0
LINE
  5
3BB
330
3B4
100
AcDbEntity
  8
100
  6
Continuous
 62
     7
370
    30
100
AcDbLine
 10
175.36731
 20
155.429953
 30
0.0
 11
173.710491
 21
155.798135
 31
0.0
  0
LINE
  5
3BC
330
3B4
100
AcDbEntity
  8
100
  6
Continuous
 62
     7
370
    30
100
AcDbLine
 10
173.710491
 20
155.798135
 30
0.0
 11
172.728673
 21
157.209499
 31
0.0
  0
LINE
  5
3BD
330
3B4
100
AcDbEntity
  8
100
  6
Continuous
 62
     7
370
    30
100
AcDbLine
 10
172.728673
 20
157.209499
 30
0.0
 11
172.360491
 21
159.173135
 31
0.0
  0
LINE
  5
3BE
330
3B4
100
AcDbEntity
  8
100
  6
Continuous
 62
     7
370
    30
100
AcDbLine
 10
172.360491
 20
159.173135
 30
0.0
 11
172.912764
 21
160.95268
 31
0.0
  0
LINE
  5
3BF
330
3B4
100
AcDbEntity
  8
100
  6
Continuous
 62
     7
370
    30
100
AcDbLine
 10
172.912764
 20
160.95268
 30
0.0
 11
174.876401
 21
162.364044
 31
0.0
  0
LINE
  5
3C0
330
3B4
100
AcDbEntity
  8
100
  6
Continuous
 62
     7
370
    30
100
AcDbLine
 10
174.876401
 20
162.364044
 30
0.0
 11
177.944582
 21
162.670862
 31
0.0
  0
LINE
  5
3C1
330
3B4
100
AcDbEntity
  8
100
  6
Continuous
 62
     7
370
    30
100
AcDbLine
 10
177.944582
 20
162.670862
 30
0.0
 11
179.969582
 21
161.689044
 31
0.0
  0
LINE
  5
3C2
330
3B4
100
AcDbEntity
  8
100
  6
Continuous
 62
     7
370
    30
100
AcDbLine
 10
179.969582
 20
161.689044
 30
0.0
 11
181.012764
 21
160.339044
 31
0.0
  0
LINE
  5
3C3
330
3B4
100
AcDbEntity
  8
100
  6
Continuous
 62
     7
370
    30
100
AcDbLine
 10
181.012764
 20
160.339044
 30
0.0
 11
181.626401
 21
158.989044
 31
0.0
  0
ENDBLK
  5
3B6
330
3B4
100
AcDbEntity
  8
0
100
AcDbBlockEnd
  0
BLOCK
  5
3C6
330
3C5
100
AcDbEntity
  8
0
100
AcDbBlockBegin
  2
G42
 70
     0
 10
0.0
 20
0.0
 30
0.0
  3
G42
  1

  0
LINE
  5
3C8
330
3C5
100
AcDbEntity
  8
100
  6
Continuous
 62
     7
370
    30
100
AcDbLine
 10
179.846855
 20
160.032226
 30
0.0
 11
180.09231
 21
158.804953
 31
0.0
  0
LINE
  5
3C9
330
3C5
100
AcDbEntity
  8
100
  6
Continuous
 62
     7
370
    30
100
AcDbLine
 10
180.09231
 20
158.804953
 30
0.0
 11
179.41731
 21
157.823135
 31
0.0
  0
LINE
  5
3CA
330
3C5
100
AcDbEntity
  8
100
  6
Continuous
 62
     7
370
    30
100
AcDbLine
 10
179.41731
 20
157.823135
 30
0.0
 11
178.128673
 21
157.393589
 31
0.0
  0
LINE
  5
3CB
330
3C5
100
AcDbEntity
  8
100
  6
Continuous
 62
     7
370
    30
100
AcDbLine
 10
178.128673
 20
157.393589
 30
0.0
 11
176.840037
 21
157.270862
 31
0.0
  0
LINE
  5
3CC
330
3C5
100
AcDbEntity
  8
100
  6
Continuous
 62
     7
370
    30
100
AcDbLine
 10
176.840037
 20
157.270862
 30
0.0
 11
175.735491
 21
157.270862
 31
0.0
  0
LINE
  5
3CD
330
3C5
100
AcDbEntity
  8
100
  6
Continuous
 62
     7
370
    30
100
AcDbLine
 10
175.735491
 20
157.270862
 30
0.0
 11
174.815037
 21
157.454953
 31
0.0
  0
LINE
  5
3CE
330
3C5
100
AcDbEntity
  8
100
  6
Continuous
 62
     7
370
    30
100
AcDbLine
 10
174.815037
 20
157.454953
 30
0.0
 11
174.078673
 21
158.129953
 31
0.0
  0
LINE
  5
3CF
330
3C5
100
AcDbEntity
  8
100
  6
Continuous
 62
     7
370
    30
100
AcDbLine
 10
174.078673
 20
158.129953
 30
0.0
 11
173.955946
 21
158.866317
 31
0.0
  0
LINE
  5
3D0
330
3C5
100
AcDbEntity
  8
100
  6
Continuous
 62
     7
370
    30
100
AcDbLine
 10
173.955946
 20
158.866317
 30
0.0
 11
174.140037
 21
159.848135
 31
0.0
  0
LINE
  5
3D1
330
3C5
100
AcDbEntity
  8
100
  6
Continuous
 62
     7
370
    30
100
AcDbLine
 10
174.140037
 20
159.848135
 30
0.0
 11
175.428673
 21
160.461771
 31
0.0
  0
LINE
  5
3D2
330
3C5
100
AcDbEntity
  8
100
  6
Continuous
 62
     7
370
    30
100
AcDbLine
 10
175.428673
 20
160.461771
 30
0.0
 11
177.208219
 21
160.829953
 31
0.0
  0
LINE
  5
3D3
330
3C5
100
AcDbEntity
  8
100
  6
Continuous
 62
     7
370
    30
100
AcDbLine
 10
177.208219
 20
160.829953
 30
0.0
 11
178.619582
 21
160.707226
 31
0.0
  0
LINE
  5
3D4
330
3C5
100
AcDbEntity
  8
100
  6
Continuous
 62
     7
370
    30
100
AcDbLine
 10
178.619582
 20
160.707226
 30
0.0
 11
179.846855
 21
160.032226
 31
0.0
  0
ENDBLK
  5
3C7
330
3C5
100
AcDbEntity
  8
0
100
AcDbBlockEnd
  0
ENDSEC
  0
SECTION
  2
ENTITIES
  0
MTEXT
  5
E1
330
1F
100
AcDbEntity
  8
100
  6
Continuous
 62
     7
370
     9
100
AcDbMText
 10
-9.818182
 20
-202.254545
 30
0.0
 40
25.0
 41
293.4182016041797
 46
25.0
 71
     7
 72
     1
  1
{\fＭＳ ゴシック;\W0.714286;松本船舶電機製作所}
 73
     1
 44
1.0
  0
MTEXT
  5
E2
330
1F
100
AcDbEntity
  8
100
  6
Continuous
 62
     7
370
     9
100
AcDbMText
 10
-14.17880163159333
 20
298.6303031212121
 30
0.0
 40
25.0
 41
320.3516550524885
 46
25.0
 71
     7
 72
     1
  1
{\fＭＳ ゴシック;\W0.714286;Ｒ１号デッキシルバー}
 73
     1
 44
1.0
  0
MTEXT
  5
E3
330
1F
100
AcDbEntity
  8
100
  6
Continuous
 62
     7
370
     9
100
AcDbMText
 10
45.33329134764413
 20
338.4030303939394
 30
0.0
 40
25.0
 41
133.073527210704
 46
25.0
 71
     7
 72
     1
  1
{\fＭＳ ゴシック;\W0.714286;(R1-DK-S)}
 73
     1
 44
1.0
  0
INSERT
  5
3D6
330
1F
100
AcDbEntity
  8
0
100
AcDbBlockReference
  2
G1
 10
0.0
 20
0.0
 30
0.0
  0
LINE
  5
3D7
330
1F
100
AcDbEntity
  8
101
  6
Continuous
 62
     7
370
    30
100
AcDbLine
 10
178.619582
 20
160.707226
 30
0.0
 11
179.846855
 21
160.032226
 31
0.0
  0
LINE
  5
3D8
330
1F
100
AcDbEntity
  8
101
  6
Continuous
 62
     7
370
    30
100
AcDbLine
 10
177.208219
 20
160.829953
 30
0.0
 11
178.619582
 21
160.707226
 31
0.0
  0
LINE
  5
3D9
330
1F
100
AcDbEntity
  8
101
  6
Continuous
 62
     7
370
    30
100
AcDbLine
 10
175.428673
 20
160.461771
 30
0.0
 11
177.208219
 21
160.829953
 31
0.0
  0
LINE
  5
3DA
330
1F
100
AcDbEntity
  8
101
  6
Continuous
 62
     7
370
    30
100
AcDbLine
 10
174.140037
 20
159.848135
 30
0.0
 11
175.428673
 21
160.461771
 31
0.0
  0
LINE
  5
3DB
330
1F
100
AcDbEntity
  8
101
  6
Continuous
 62
     7
370
    30
100
AcDbLine
 10
173.955946
 20
158.866317
 30
0.0
 11
174.140037
 21
159.848135
 31
0.0
  0
LINE
  5
3DC
330
1F
100
AcDbEntity
  8
101
  6
Continuous
 62
     7
370
    30
100
AcDbLine
 10
174.078673
 20
158.129953
 30
0.0
 11
173.955946
 21
158.866317
 31
0.0
  0
LINE
  5
3DD
330
1F
100
AcDbEntity
  8
101
  6
Continuous
 62
     7
370
    30
100
AcDbLine
 10
174.815037
 20
157.454953
 30
0.0
 11
174.078673
 21
158.129953
 31
0.0
  0
LINE
  5
3DE
330
1F
100
AcDbEntity
  8
101
  6
Continuous
 62
     7
370
    30
100
AcDbLine
 10
175.735491
 20
157.270862
 30
0.0
 11
174.815037
 21
157.454953
 31
0.0
  0
LINE
  5
3DF
330
1F
100
AcDbEntity
  8
101
  6
Continuous
 62
     7
370
    30
100
AcDbLine
 10
176.840037
 20
157.270862
 30
0.0
 11
175.735491
 21
157.270862
 31
0.0
  0
LINE
  5
3E0
330
1F
100
AcDbEntity
  8
101
  6
Continuous
 62
     7
370
    30
100
AcDbLine
 10
178.128673
 20
157.393589
 30
0.0
 11
176.840037
 21
157.270862
 31
0.0
  0
LINE
  5
3E1
330
1F
100
AcDbEntity
  8
101
  6
Continuous
 62
     7
370
    30
100
AcDbLine
 10
179.41731
 20
157.823135
 30
0.0
 11
178.128673
 21
157.393589
 31
0.0
  0
LINE
  5
3E2
330
1F
100
AcDbEntity
  8
101
  6
Continuous
 62
     7
370
    30
100
AcDbLine
 10
180.09231
 20
158.804953
 30
0.0
 11
179.41731
 21
157.823135
 31
0.0
  0
LINE
  5
3E3
330
1F
100
AcDbEntity
  8
101
  6
Continuous
 62
     7
370
    30
100
AcDbLine
 10
179.846855
 20
160.032226
 30
0.0
 11
180.09231
 21
158.804953
 31
0.0
  0
LINE
  5
3E4
330
1F
100
AcDbEntity
  8
101
  6
Continuous
 62
     7
370
    30
100
AcDbLine
 10
181.012764
 20
160.339044
 30
0.0
 11
181.626401
 21
158.989044
 31
0.0
  0
LINE
  5
3E5
330
1F
100
AcDbEntity
  8
101
  6
Continuous
 62
     7
370
    30
100
AcDbLine
 10
179.969582
 20
161.689044
 30
0.0
 11
181.012764
 21
160.339044
 31
0.0
  0
LINE
  5
3E6
330
1F
100
AcDbEntity
  8
101
  6
Continuous
 62
     7
370
    30
100
AcDbLine
 10
177.944582
 20
162.670862
 30
0.0
 11
179.969582
 21
161.689044
 31
0.0
  0
LINE
  5
3E7
330
1F
100
AcDbEntity
  8
101
  6
Continuous
 62
     7
370
    30
100
AcDbLine
 10
174.876401
 20
162.364044
 30
0.0
 11
177.944582
 21
162.670862
 31
0.0
  0
LINE
  5
3E8
330
1F
100
AcDbEntity
  8
101
  6
Continuous
 62
     7
370
    30
100
AcDbLine
 10
172.912764
 20
160.95268
 30
0.0
 11
174.876401
 21
162.364044
 31
0.0
  0
LINE
  5
3E9
330
1F
100
AcDbEntity
  8
101
  6
Continuous
 62
     7
370
    30
100
AcDbLine
 10
172.360491
 20
159.173135
 30
0.0
 11
172.912764
 21
160.95268
 31
0.0
  0
LINE
  5
3EA
330
1F
100
AcDbEntity
  8
101
  6
Continuous
 62
     7
370
    30
100
AcDbLine
 10
172.728673
 20
157.209499
 30
0.0
 11
172.360491
 21
159.173135
 31
0.0
  0
LINE
  5
3EB
330
1F
100
AcDbEntity
  8
101
  6
Continuous
 62
     7
370
    30
100
AcDbLine
 10
173.710491
 20
155.798135
 30
0.0
 11
172.728673
 21
157.209499
 31
0.0
  0
LINE
  5
3EC
330
1F
100
AcDbEntity
  8
101
  6
Continuous
 62
     7
370
    30
100
AcDbLine
 10
175.36731
 20
155.429953
 30
0.0
 11
173.710491
 21
155.798135
 31
0.0
  0
LINE
  5
3ED
330
1F
100
AcDbEntity
  8
101
  6
Continuous
 62
     7
370
    30
100
AcDbLine
 10
177.760491
 20
155.307226
 30
0.0
 11
175.36731
 21
155.429953
 31
0.0
  0
LINE
  5
3EE
330
1F
100
AcDbEntity
  8
101
  6
Continuous
 62
     7
370
    30
100
AcDbLine
 10
180.153673
 20
156.104953
 30
0.0
 11
177.760491
 21
155.307226
 31
0.0
  0
LINE
  5
3EF
330
1F
100
AcDbEntity
  8
101
  6
Continuous
 62
     7
370
    30
100
AcDbLine
 10
181.380946
 20
157.393589
 30
0.0
 11
180.153673
 21
156.104953
 31
0.0
  0
LINE
  5
3F0
330
1F
100
AcDbEntity
  8
101
  6
Continuous
 62
     7
370
    30
100
AcDbLine
 10
181.626401
 20
158.989044
 30
0.0
 11
181.380946
 21
157.393589
 31
0.0
  0
LINE
  5
3F1
330
1F
100
AcDbEntity
  8
101
  6
Continuous
 62
     7
370
    30
100
AcDbLine
 10
26.407082
 20
168.837908
 30
0.0
 11
28.861628
 21
169.206089
 31
0.0
  0
LINE
  5
3F2
330
1F
100
AcDbEntity
  8
101
  6
Continuous
 62
     7
370
    30
100
AcDbLine
 10
25.609355
 20
167.917453
 30
0.0
 11
26.407082
 21
168.837908
 31
0.0
  0
LINE
  5
3F3
330
1F
100
AcDbEntity
  8
101
  6
Continuous
 62
     7
370
    30
100
AcDbLine
 10
25.609355
 20
166.383362
 30
0.0
 11
25.609355
 21
167.917453
 31
0.0
  0
LINE
  5
3F4
330
1F
100
AcDbEntity
  8
101
  6
Continuous
 62
     7
370
    30
100
AcDbLine
 10
25.793446
 20
164.603817
 30
0.0
 11
25.609355
 21
166.383362
 31
0.0
  0
LINE
  5
3F5
330
1F
100
AcDbEntity
  8
101
  6
Continuous
 62
     7
370
    30
100
AcDbLine
 10
26.652537
 20
163.560635
 30
0.0
 11
25.793446
 21
164.603817
 31
0.0
  0
LINE
  5
3F6
330
1F
100
AcDbEntity
  8
101
  6
Continuous
 62
     7
370
    30
100
AcDbLine
 10
29.597991
 20
162.517453
 30
0.0
 11
26.652537
 21
163.560635
 31
0.0
  0
LINE
  5
3F7
330
1F
100
AcDbEntity
  8
101
  6
Continuous
 62
     7
370
    30
100
AcDbLine
 10
31.745719
 20
162.517453
 30
0.0
 11
29.597991
 21
162.517453
 31
0.0
  0
LINE
  5
3F8
330
1F
100
AcDbEntity
  8
101
  6
Continuous
 62
     7
370
    30
100
AcDbLine
 10
33.770719
 20
163.131089
 30
0.0
 11
31.745719
 21
162.517453
 31
0.0
  0
LINE
  5
3F9
330
1F
100
AcDbEntity
  8
101
  6
Continuous
 62
     7
370
    30
100
AcDbLine
 10
34.568446
 20
164.419726
 30
0.0
 11
33.770719
 21
163.131089
 31
0.0
  0
LINE
  5
3FA
330
1F
100
AcDbEntity
  8
101
  6
Continuous
 62
     7
370
    30
100
AcDbLine
 10
34.752537
 20
166.260635
 30
0.0
 11
34.568446
 21
164.419726
 31
0.0
  0
LINE
  5
3FB
330
1F
100
AcDbEntity
  8
101
  6
Continuous
 62
     7
370
    30
100
AcDbLine
 10
33.832082
 20
167.978817
 30
0.0
 11
34.752537
 21
166.260635
 31
0.0
  0
LINE
  5
3FC
330
1F
100
AcDbEntity
  8
101
  6
Continuous
 62
     7
370
    30
100
AcDbLine
 10
32.229264
 20
168.766726
 30
0.0
 11
33.832082
 21
167.978817
 31
0.0
  0
LINE
  5
3FD
330
1F
100
AcDbEntity
  8
101
  6
Continuous
 62
     7
370
    30
100
AcDbLine
 10
28.861628
 20
169.206089
 30
0.0
 11
31.316173
 21
169.451544
 31
0.0
  0
LINE
  5
3FE
330
1F
100
AcDbEntity
  8
101
  6
Continuous
 62
     7
370
    30
100
AcDbLine
 10
27.450264
 20
168.285635
 30
0.0
 11
28.861628
 21
169.206089
 31
0.0
  0
LINE
  5
3FF
330
1F
100
AcDbEntity
  8
101
  6
Continuous
 62
     7
370
    30
100
AcDbLine
 10
26.836628
 20
166.935635
 30
0.0
 11
27.450264
 21
168.285635
 31
0.0
  0
LINE
  5
400
330
1F
100
AcDbEntity
  8
101
  6
Continuous
 62
     7
370
    30
100
AcDbLine
 10
26.959355
 20
165.462908
 30
0.0
 11
26.836628
 21
166.935635
 31
0.0
  0
LINE
  5
401
330
1F
100
AcDbEntity
  8
101
  6
Continuous
 62
     7
370
    30
100
AcDbLine
 10
28.063901
 20
164.481089
 30
0.0
 11
26.959355
 21
165.462908
 31
0.0
  0
LINE
  5
402
330
1F
100
AcDbEntity
  8
101
  6
Continuous
 62
     7
370
    30
100
AcDbLine
 10
29.782082
 20
163.867453
 30
0.0
 11
28.063901
 21
164.481089
 31
0.0
  0
LINE
  5
403
330
1F
100
AcDbEntity
  8
101
  6
Continuous
 62
     7
370
    30
100
AcDbLine
 10
31.500264
 20
163.744726
 30
0.0
 11
29.782082
 21
163.867453
 31
0.0
  0
LINE
  5
404
330
1F
100
AcDbEntity
  8
101
  6
Continuous
 62
     7
370
    30
100
AcDbLine
 10
33.402537
 20
164.603817
 30
0.0
 11
31.500264
 21
163.744726
 31
0.0
  0
LINE
  5
405
330
1F
100
AcDbEntity
  8
101
  6
Continuous
 62
     7
370
    30
100
AcDbLine
 10
33.832082
 20
166.137908
 30
0.0
 11
33.402537
 21
164.603817
 31
0.0
  0
LINE
  5
406
330
1F
100
AcDbEntity
  8
101
  6
Continuous
 62
     7
370
    30
100
AcDbLine
 10
33.034355
 20
168.162908
 30
0.0
 11
33.832082
 21
166.137908
 31
0.0
  0
LINE
  5
407
330
1F
100
AcDbEntity
  8
101
  6
Continuous
 62
     7
370
    30
100
AcDbLine
 10
31.316173
 20
169.451544
 30
0.0
 11
33.034355
 21
168.162908
 31
0.0
  0
LINE
  5
408
330
1F
100
AcDbEntity
  8
101
  6
Continuous
 62
     7
370
    30
100
AcDbLine
 10
30.272991
 20
103.91518
 30
0.0
 11
33.738443
 21
99.926544
 31
0.0
  0
LINE
  5
409
330
1F
100
AcDbEntity
  8
101
  6
Continuous
 62
     7
370
    30
100
AcDbLine
 10
26.222991
 20
109.560635
 30
0.0
 11
30.272991
 21
103.91518
 31
0.0
  0
LINE
  5
40A
330
1F
100
AcDbEntity
  8
101
  6
Continuous
 62
     7
370
    30
100
AcDbLine
 10
21.682082
 20
116.556089
 30
0.0
 11
26.222991
 21
109.560635
 31
0.0
  0
LINE
  5
40B
330
1F
100
AcDbEntity
  8
101
  6
Continuous
 62
     7
370
    30
100
AcDbLine
 10
17.632082
 20
126.86518
 30
0.0
 11
21.682082
 21
116.556089
 31
0.0
  0
LINE
  5
40C
330
1F
100
AcDbEntity
  8
101
  6
Continuous
 62
     7
370
    30
100
AcDbLine
 10
16.036628
 20
137.051544
 30
0.0
 11
17.632082
 21
126.86518
 31
0.0
  0
LINE
  5
40D
330
1F
100
AcDbEntity
  8
101
  6
Continuous
 62
     7
370
    30
100
AcDbLine
 10
16.282082
 20
148.096999
 30
0.0
 11
16.036628
 21
137.051544
 31
0.0
  0
LINE
  5
40E
330
1F
100
AcDbEntity
  8
101
  6
Continuous
 62
     7
370
    30
100
AcDbLine
 10
19.10481
 20
159.633362
 30
0.0
 11
16.282082
 21
148.096999
 31
0.0
  0
LINE
  5
40F
330
1F
100
AcDbEntity
  8
101
  6
Continuous
 62
     7
370
    30
100
AcDbLine
 10
22.786628
 20
169.206089
 30
0.0
 11
19.10481
 21
159.633362
 31
0.0
  0
LINE
  5
410
330
1F
100
AcDbEntity
  8
101
  6
Continuous
 62
     7
370
    30
100
AcDbLine
 10
32.850264
 20
182.337908
 30
0.0
 11
22.786628
 21
169.206089
 31
0.0
  0
LINE
  5
411
330
1F
100
AcDbEntity
  8
101
  6
Continuous
 62
     7
370
    30
100
AcDbLine
 10
39.722991
 20
189.087908
 30
0.0
 11
32.850264
 21
182.337908
 31
0.0
  0
LINE
  5
412
330
1F
100
AcDbEntity
  8
101
  6
Continuous
 62
     7
370
    30
100
AcDbLine
 10
48.559355
 20
196.328817
 30
0.0
 11
39.722991
 21
189.087908
 31
0.0
  0
LINE
  5
413
330
1F
100
AcDbEntity
  8
101
  6
Continuous
 62
     7
370
    30
100
AcDbLine
 10
60.586628
 20
202.096999
 30
0.0
 11
48.559355
 21
196.328817
 31
0.0
  0
LINE
  5
414
330
1F
100
AcDbEntity
  8
101
  6
Continuous
 62
     7
370
    30
100
AcDbLine
 10
74.577537
 20
207.742453
 30
0.0
 11
60.586628
 21
202.096999
 31
0.0
  0
LINE
  5
415
330
1F
100
AcDbEntity
  8
101
  6
Continuous
 62
     7
370
    30
100
AcDbLine
 10
86.850264
 20
210.074271
 30
0.0
 11
74.577537
 21
207.742453
 31
0.0
  0
LINE
  5
416
330
1F
100
AcDbEntity
  8
101
  6
Continuous
 62
     7
370
    30
100
AcDbLine
 10
94.827537
 20
210.687908
 30
0.0
 11
86.850264
 21
210.074271
 31
0.0
  0
LINE
  5
417
330
1F
100
AcDbEntity
  8
101
  6
Continuous
 62
     7
370
    30
100
AcDbLine
 10
113.482082
 20
210.196999
 30
0.0
 11
94.827537
 21
210.687908
 31
0.0
  0
LINE
  5
418
330
1F
100
AcDbEntity
  8
101
  6
Continuous
 62
     7
370
    30
100
AcDbLine
 10
124.527537
 20
209.092453
 30
0.0
 11
113.482082
 21
210.196999
 31
0.0
  0
LINE
  5
419
330
1F
100
AcDbEntity
  8
101
  6
Continuous
 62
     7
370
    30
100
AcDbLine
 10
138.518446
 20
204.551544
 30
0.0
 11
124.527537
 21
209.092453
 31
0.0
  0
LINE
  5
41A
330
1F
100
AcDbEntity
  8
101
  6
Continuous
 62
     7
370
    30
100
AcDbLine
 10
150.300264
 20
199.028817
 30
0.0
 11
138.518446
 21
204.551544
 31
0.0
  0
LINE
  5
41B
330
1F
100
AcDbEntity
  8
101
  6
Continuous
 62
     7
370
    30
100
AcDbLine
 10
160.486628
 20
192.646999
 30
0.0
 11
150.300264
 21
199.028817
 31
0.0
  0
LINE
  5
41C
330
1F
100
AcDbEntity
  8
101
  6
Continuous
 62
     7
370
    30
100
AcDbLine
 10
167.850264
 20
186.142453
 30
0.0
 11
160.486628
 21
192.646999
 31
0.0
  0
LINE
  5
41D
330
1F
100
AcDbEntity
  8
101
  6
Continuous
 62
     7
370
    30
100
AcDbLine
 10
174.109355
 20
179.146999
 30
0.0
 11
167.850264
 21
186.142453
 31
0.0
  0
LINE
  5
41E
330
1F
100
AcDbEntity
  8
101
  6
Continuous
 62
     7
370
    30
100
AcDbLine
 10
180.000264
 20
169.083362
 30
0.0
 11
174.109355
 21
179.146999
 31
0.0
  0
LINE
  5
41F
330
1F
100
AcDbEntity
  8
101
  6
Continuous
 62
     7
370
    30
100
AcDbLine
 10
183.191173
 20
161.474271
 30
0.0
 11
180.000264
 21
169.083362
 31
0.0
  0
LINE
  5
420
330
1F
100
AcDbEntity
  8
101
  6
Continuous
 62
     7
370
    30
100
AcDbLine
 10
184.418446
 20
155.951544
 30
0.0
 11
183.191173
 21
161.474271
 31
0.0
  0
LINE
  5
421
330
1F
100
AcDbEntity
  8
101
  6
Continuous
 62
     7
370
    30
100
AcDbLine
 10
186.013901
 20
147.606089
 30
0.0
 11
184.418446
 21
155.951544
 31
0.0
  0
LINE
  5
422
330
1F
100
AcDbEntity
  8
101
  6
Continuous
 62
     7
370
    30
100
AcDbLine
 10
185.891173
 20
138.769726
 30
0.0
 11
186.013901
 21
147.606089
 31
0.0
  0
LINE
  5
423
330
1F
100
AcDbEntity
  8
101
  6
Continuous
 62
     7
370
    30
100
AcDbLine
 10
183.436628
 20
128.092453
 30
0.0
 11
185.891173
 21
138.769726
 31
0.0
  0
LINE
  5
424
330
1F
100
AcDbEntity
  8
101
  6
Continuous
 62
     7
370
    30
100
AcDbLine
 10
180.122991
 20
119.624271
 30
0.0
 11
183.436628
 21
128.092453
 31
0.0
  0
LINE
  5
425
330
1F
100
AcDbEntity
  8
101
  6
Continuous
 62
     7
370
    30
100
AcDbLine
 10
174.600264
 20
110.787908
 30
0.0
 11
180.122991
 21
119.624271
 31
0.0
  0
LINE
  5
426
330
1F
100
AcDbEntity
  8
101
  6
Continuous
 62
     7
370
    30
100
AcDbLine
 10
170.30481
 20
105.633362
 30
0.0
 11
174.600264
 21
110.787908
 31
0.0
  0
LINE
  5
427
330
1F
100
AcDbEntity
  8
101
  6
Continuous
 62
     7
370
    30
100
AcDbLine
 10
174.722991
 20
136.069726
 30
0.0
 11
173.525334
 21
131.138909
 31
0.0
  0
LINE
  5
428
330
1F
100
AcDbEntity
  8
101
  6
Continuous
 62
     7
370
    30
100
AcDbLine
 10
174.600264
 20
142.328817
 30
0.0
 11
174.722991
 21
136.069726
 31
0.0
  0
LINE
  5
429
330
1F
100
AcDbEntity
  8
101
  6
Continuous
 62
     7
370
    30
100
AcDbLine
 10
174.109355
 20
146.624271
 30
0.0
 11
174.600264
 21
142.328817
 31
0.0
  0
LINE
  5
42A
330
1F
100
AcDbEntity
  8
101
  6
Continuous
 62
     7
370
    30
100
AcDbLine
 10
172.513901
 20
153.619726
 30
0.0
 11
174.109355
 21
146.624271
 31
0.0
  0
LINE
  5
42B
330
1F
100
AcDbEntity
  8
101
  6
Continuous
 62
     7
370
    30
100
AcDbLine
 10
169.200264
 20
160.246999
 30
0.0
 11
172.513901
 21
153.619726
 31
0.0
  0
LINE
  5
42C
330
1F
100
AcDbEntity
  8
101
  6
Continuous
 62
     7
370
    30
100
AcDbLine
 10
164.413901
 20
166.996999
 30
0.0
 11
169.200264
 21
160.246999
 31
0.0
  0
LINE
  5
42D
330
1F
100
AcDbEntity
  8
101
  6
Continuous
 62
     7
370
    30
100
AcDbLine
 10
157.418446
 20
173.992453
 30
0.0
 11
164.413901
 21
166.996999
 31
0.0
  0
LINE
  5
42E
330
1F
100
AcDbEntity
  8
101
  6
Continuous
 62
     7
370
    30
100
AcDbLine
 10
149.072991
 20
180.86518
 30
0.0
 11
157.418446
 21
173.992453
 31
0.0
  0
LINE
  5
42F
330
1F
100
AcDbEntity
  8
101
  6
Continuous
 62
     7
370
    30
100
AcDbLine
 10
140.236628
 20
186.142453
 30
0.0
 11
149.072991
 21
180.86518
 31
0.0
  0
LINE
  5
430
330
1F
100
AcDbEntity
  8
101
  6
Continuous
 62
     7
370
    30
100
AcDbLine
 10
130.541173
 20
190.31518
 30
0.0
 11
140.236628
 21
186.142453
 31
0.0
  0
LINE
  5
431
330
1F
100
AcDbEntity
  8
101
  6
Continuous
 62
     7
370
    30
100
AcDbLine
 10
116.550264
 20
193.628817
 30
0.0
 11
130.541173
 21
190.31518
 31
0.0
  0
LINE
  5
432
330
1F
100
AcDbEntity
  8
101
  6
Continuous
 62
     7
370
    30
100
AcDbLine
 10
104.277537
 20
193.996999
 30
0.0
 11
116.550264
 21
193.628817
 31
0.0
  0
LINE
  5
433
330
1F
100
AcDbEntity
  8
101
  6
Continuous
 62
     7
370
    30
100
AcDbLine
 10
92.250264
 20
193.506089
 30
0.0
 11
104.277537
 21
193.996999
 31
0.0
  0
LINE
  5
434
330
1F
100
AcDbEntity
  8
101
  6
Continuous
 62
     7
370
    30
100
AcDbLine
 10
79.118446
 20
191.787908
 30
0.0
 11
92.250264
 21
193.506089
 31
0.0
  0
LINE
  5
435
330
1F
100
AcDbEntity
  8
101
  6
Continuous
 62
     7
370
    30
100
AcDbLine
 10
67.336628
 20
187.737908
 30
0.0
 11
79.118446
 21
191.787908
 31
0.0
  0
LINE
  5
436
330
1F
100
AcDbEntity
  8
101
  6
Continuous
 62
     7
370
    30
100
AcDbLine
 10
57.272991
 20
182.583362
 30
0.0
 11
67.336628
 21
187.737908
 31
0.0
  0
LINE
  5
437
330
1F
100
AcDbEntity
  8
101
  6
Continuous
 62
     7
370
    30
100
AcDbLine
 10
47.945719
 20
176.201544
 30
0.0
 11
57.272991
 21
182.583362
 31
0.0
  0
LINE
  5
438
330
1F
100
AcDbEntity
  8
101
  6
Continuous
 62
     7
370
    30
100
AcDbLine
 10
39.600264
 20
167.856089
 30
0.0
 11
47.945719
 21
176.201544
 31
0.0
  0
LINE
  5
439
330
1F
100
AcDbEntity
  8
101
  6
Continuous
 62
     7
370
    30
100
AcDbLine
 10
33.218446
 20
158.160635
 30
0.0
 11
39.600264
 21
167.856089
 31
0.0
  0
LINE
  5
43A
330
1F
100
AcDbEntity
  8
101
  6
Continuous
 62
     7
370
    30
100
AcDbLine
 10
29.413901
 20
150.674271
 30
0.0
 11
33.218446
 21
158.160635
 31
0.0
  0
LINE
  5
43B
330
1F
100
AcDbEntity
  8
101
  6
Continuous
 62
     7
370
    30
100
AcDbLine
 10
27.941173
 20
145.396999
 30
0.0
 11
29.413901
 21
150.674271
 31
0.0
  0
LINE
  5
43C
330
1F
100
AcDbEntity
  8
101
  6
Continuous
 62
     7
370
    30
100
AcDbLine
 10
28.708124
 20
128.315927
 30
0.0
 11
27.941173
 21
145.396999
 31
0.0
  0
LINE
  5
43D
330
1F
100
AcDbEntity
  8
101
  6
Continuous
 62
     7
370
    30
100
AcDbLine
 10
169.077537
 20
138.278817
 30
0.0
 11
165.886628
 21
144.537908
 31
0.0
  0
LINE
  5
43E
330
1F
100
AcDbEntity
  8
101
  6
Continuous
 62
     7
370
    30
100
AcDbLine
 10
171.041173
 20
133.001544
 30
0.0
 11
169.077537
 21
138.278817
 31
0.0
  0
LINE
  5
43F
330
1F
100
AcDbEntity
  8
101
  6
Continuous
 62
     7
370
    30
100
AcDbLine
 10
171.900264
 20
122.692453
 30
0.0
 11
171.041173
 21
133.001544
 31
0.0
  0
LINE
  5
440
330
1F
100
AcDbEntity
  8
101
  6
Continuous
 62
     7
370
    30
100
AcDbLine
 10
170.550264
 20
113.733362
 30
0.0
 11
171.900264
 21
122.692453
 31
0.0
  0
LINE
  5
441
330
1F
100
AcDbEntity
  8
101
  6
Continuous
 62
     7
370
    30
100
AcDbLine
 10
167.60481
 20
106.369726
 30
0.0
 11
170.550264
 21
113.733362
 31
0.0
  0
LINE
  5
442
330
1F
100
AcDbEntity
  8
101
  6
Continuous
 62
     7
370
    30
100
AcDbLine
 10
164.773121
 20
102.431612
 30
0.0
 11
167.60481
 21
106.369726
 31
0.0
  0
LINE
  5
443
330
1F
100
AcDbEntity
  8
101
  6
Continuous
 62
     7
370
    30
100
AcDbLine
 10
167.972991
 20
103.056089
 30
0.0
 11
164.879868
 21
99.926544
 31
0.0
  0
LINE
  5
444
330
1F
100
AcDbEntity
  8
101
  6
Continuous
 62
     7
370
    30
100
AcDbLine
 10
170.30481
 20
105.633362
 30
0.0
 11
167.972991
 21
103.056089
 31
0.0
  0
LINE
  5
445
330
1F
100
AcDbEntity
  8
101
  6
Continuous
 62
     7
370
    30
100
AcDbLine
 10
172.268446
 20
109.192453
 30
0.0
 11
170.30481
 21
105.633362
 31
0.0
  0
LINE
  5
446
330
1F
100
AcDbEntity
  8
101
  6
Continuous
 62
     7
370
    30
100
AcDbLine
 10
174.232082
 20
115.819726
 30
0.0
 11
172.268446
 21
109.192453
 31
0.0
  0
LINE
  5
447
330
1F
100
AcDbEntity
  8
101
  6
Continuous
 62
     7
370
    30
100
AcDbLine
 10
174.477537
 20
122.81518
 30
0.0
 11
174.232082
 21
115.819726
 31
0.0
  0
LINE
  5
448
330
1F
100
AcDbEntity
  8
101
  6
Continuous
 62
     7
370
    30
100
AcDbLine
 10
173.863901
 20
129.687908
 30
0.0
 11
174.477537
 21
122.81518
 31
0.0
  0
LINE
  5
449
330
1F
100
AcDbEntity
  8
101
  6
Continuous
 62
     7
370
    30
100
AcDbLine
 10
172.145719
 20
137.051544
 30
0.0
 11
173.863901
 21
129.687908
 31
0.0
  0
LINE
  5
44A
330
1F
100
AcDbEntity
  8
101
  6
Continuous
 62
     7
370
    30
100
AcDbLine
 10
168.586628
 20
143.433362
 30
0.0
 11
172.145719
 21
137.051544
 31
0.0
  0
LINE
  5
44B
330
1F
100
AcDbEntity
  8
101
  6
Continuous
 62
     7
370
    30
100
AcDbLine
 10
164.536628
 20
150.674271
 30
0.0
 11
168.586628
 21
143.433362
 31
0.0
  0
LINE
  5
44C
330
1F
100
AcDbEntity
  8
101
  6
Continuous
 62
     7
370
    30
100
AcDbLine
 10
159.013901
 20
156.933362
 30
0.0
 11
164.536628
 21
150.674271
 31
0.0
  0
LINE
  5
44D
330
1F
100
AcDbEntity
  8
101
  6
Continuous
 62
     7
370
    30
100
AcDbLine
 10
153.368446
 20
161.596999
 30
0.0
 11
159.013901
 21
156.933362
 31
0.0
  0
LINE
  5
44E
330
1F
100
AcDbEntity
  8
101
  6
Continuous
 62
     7
370
    30
100
AcDbLine
 10
143.918446
 20
166.996999
 30
0.0
 11
153.368446
 21
161.596999
 31
0.0
  0
LINE
  5
44F
330
1F
100
AcDbEntity
  8
101
  6
Continuous
 62
     7
370
    30
100
AcDbLine
 10
135.082082
 20
170.924271
 30
0.0
 11
143.918446
 21
166.996999
 31
0.0
  0
LINE
  5
450
330
1F
100
AcDbEntity
  8
101
  6
Continuous
 62
     7
370
    30
100
AcDbLine
 10
126.000264
 20
173.869726
 30
0.0
 11
135.082082
 21
170.924271
 31
0.0
  0
LINE
  5
451
330
1F
100
AcDbEntity
  8
101
  6
Continuous
 62
     7
370
    30
100
AcDbLine
 10
116.918446
 20
175.833362
 30
0.0
 11
126.000264
 21
173.869726
 31
0.0
  0
LINE
  5
452
330
1F
100
AcDbEntity
  8
101
  6
Continuous
 62
     7
370
    30
100
AcDbLine
 10
106.732082
 20
176.692453
 30
0.0
 11
116.918446
 21
175.833362
 31
0.0
  0
LINE
  5
453
330
1F
100
AcDbEntity
  8
101
  6
Continuous
 62
     7
370
    30
100
AcDbLine
 10
96.300264
 20
175.956089
 30
0.0
 11
106.732082
 21
176.692453
 31
0.0
  0
LINE
  5
454
330
1F
100
AcDbEntity
  8
101
  6
Continuous
 62
     7
370
    30
100
AcDbLine
 10
85.500264
 20
174.974271
 30
0.0
 11
96.300264
 21
175.956089
 31
0.0
  0
LINE
  5
455
330
1F
100
AcDbEntity
  8
101
  6
Continuous
 62
     7
370
    30
100
AcDbLine
 10
76.172991
 20
172.519726
 30
0.0
 11
85.500264
 21
174.974271
 31
0.0
  0
LINE
  5
456
330
1F
100
AcDbEntity
  8
101
  6
Continuous
 62
     7
370
    30
100
AcDbLine
 10
68.195719
 20
169.942453
 30
0.0
 11
76.172991
 21
172.519726
 31
0.0
  0
LINE
  5
457
330
1F
100
AcDbEntity
  8
101
  6
Continuous
 62
     7
370
    30
100
AcDbLine
 10
61.813901
 20
167.487908
 30
0.0
 11
68.195719
 21
169.942453
 31
0.0
  0
LINE
  5
458
330
1F
100
AcDbEntity
  8
101
  6
Continuous
 62
     7
370
    30
100
AcDbLine
 10
54.941173
 20
163.31518
 30
0.0
 11
61.813901
 21
167.487908
 31
0.0
  0
LINE
  5
459
330
1F
100
AcDbEntity
  8
101
  6
Continuous
 62
     7
370
    30
100
AcDbLine
 10
48.682082
 20
159.387908
 30
0.0
 11
54.941173
 21
163.31518
 31
0.0
  0
LINE
  5
45A
330
1F
100
AcDbEntity
  8
101
  6
Continuous
 62
     7
370
    30
100
AcDbLine
 10
43.282082
 20
154.478817
 30
0.0
 11
48.682082
 21
159.387908
 31
0.0
  0
LINE
  5
45B
330
1F
100
AcDbEntity
  8
101
  6
Continuous
 62
     7
370
    30
100
AcDbLine
 10
39.35481
 20
150.306089
 30
0.0
 11
43.282082
 21
154.478817
 31
0.0
  0
LINE
  5
45C
330
1F
100
AcDbEntity
  8
101
  6
Continuous
 62
     7
370
    30
100
AcDbLine
 10
34.322991
 20
143.678817
 30
0.0
 11
39.35481
 21
150.306089
 31
0.0
  0
LINE
  5
45D
330
1F
100
AcDbEntity
  8
101
  6
Continuous
 62
     7
370
    30
100
AcDbLine
 10
31.132082
 20
135.946999
 30
0.0
 11
34.322991
 21
143.678817
 31
0.0
  0
LINE
  5
45E
330
1F
100
AcDbEntity
  8
101
  6
Continuous
 62
     7
370
    30
100
AcDbLine
 10
29.291173
 20
131.406089
 30
0.0
 11
31.132082
 21
135.946999
 31
0.0
  0
LINE
  5
45F
330
1F
100
AcDbEntity
  8
101
  6
Continuous
 62
     7
370
    30
100
AcDbLine
 10
28.063901
 20
124.901544
 30
0.0
 11
29.291173
 21
131.406089
 31
0.0
  0
LINE
  5
460
330
1F
100
AcDbEntity
  8
101
  6
Continuous
 62
     7
370
    30
100
AcDbLine
 10
27.87981
 20
119.746999
 30
0.0
 11
28.063901
 21
124.901544
 31
0.0
  0
LINE
  5
461
330
1F
100
AcDbEntity
  8
101
  6
Continuous
 62
     7
370
    30
100
AcDbLine
 10
28.063901
 20
116.06518
 30
0.0
 11
27.87981
 21
119.746999
 31
0.0
  0
LINE
  5
462
330
1F
100
AcDbEntity
  8
101
  6
Continuous
 62
     7
370
    30
100
AcDbLine
 10
28.922991
 20
112.076544
 30
0.0
 11
28.063901
 21
116.06518
 31
0.0
  0
LINE
  5
463
330
1F
100
AcDbEntity
  8
101
  6
Continuous
 62
     7
370
    30
100
AcDbLine
 10
29.782082
 20
108.578817
 30
0.0
 11
28.922991
 21
112.076544
 31
0.0
  0
LINE
  5
464
330
1F
100
AcDbEntity
  8
101
  6
Continuous
 62
     7
370
    30
100
AcDbLine
 10
31.25481
 20
105.878817
 30
0.0
 11
29.782082
 21
108.578817
 31
0.0
  0
LINE
  5
465
330
1F
100
AcDbEntity
  8
101
  6
Continuous
 62
     7
370
    30
100
AcDbLine
 10
33.832956
 20
102.352366
 30
0.0
 11
31.25481
 21
105.878817
 31
0.0
  0
LINE
  5
466
330
1F
100
AcDbEntity
  8
101
  6
Continuous
 62
     7
370
    30
100
AcDbLine
 10
43.998506
 20
90.719844
 30
0.0
 11
39.507933
 21
94.408962
 31
0.0
  0
LINE
  5
467
330
1F
100
AcDbEntity
  8
101
  6
Continuous
 62
     7
370
    30
100
AcDbLine
 10
43.982565
 20
88.14267
 30
0.0
 11
39.480512
 21
91.954723
 31
0.0
  0
LINE
  5
468
330
1F
100
AcDbEntity
  8
101
  6
Continuous
 62
     7
370
    30
100
AcDbLine
 10
44.004584
 20
91.702384
 30
0.0
 11
39.5285
 21
96.249641
 31
0.0
  0
LINE
  5
469
330
1F
100
AcDbEntity
  8
101
  6
Continuous
 62
     7
370
    30
100
AcDbLine
 10
31.991173
 20
108.394726
 30
0.0
 11
33.934147
 21
104.949604
 31
0.0
  0
LINE
  5
46A
330
1F
100
AcDbEntity
  8
101
  6
Continuous
 62
     7
370
    30
100
AcDbLine
 10
30.886628
 20
113.303817
 30
0.0
 11
31.991173
 21
108.394726
 31
0.0
  0
LINE
  5
46B
330
1F
100
AcDbEntity
  8
101
  6
Continuous
 62
     7
370
    30
100
AcDbLine
 10
30.518446
 20
118.09018
 30
0.0
 11
30.886628
 21
113.303817
 31
0.0
  0
LINE
  5
46C
330
1F
100
AcDbEntity
  8
101
  6
Continuous
 62
     7
370
    30
100
AcDbLine
 10
30.641173
 20
125.331089
 30
0.0
 11
30.518446
 21
118.09018
 31
0.0
  0
LINE
  5
46D
330
1F
100
AcDbEntity
  8
101
  6
Continuous
 62
     7
370
    30
100
AcDbLine
 10
32.113901
 20
131.344726
 30
0.0
 11
30.641173
 21
125.331089
 31
0.0
  0
LINE
  5
46E
330
1F
100
AcDbEntity
  8
101
  6
Continuous
 62
     7
370
    30
100
AcDbLine
 10
34.936628
 20
138.217453
 30
0.0
 11
32.113901
 21
131.344726
 31
0.0
  0
LINE
  5
46F
330
1F
100
AcDbEntity
  8
101
  6
Continuous
 62
     7
370
    30
100
AcDbLine
 10
39.600264
 20
146.071999
 30
0.0
 11
34.936628
 21
138.217453
 31
0.0
  0
LINE
  5
470
330
1F
100
AcDbEntity
  8
101
  6
Continuous
 62
     7
370
    30
100
AcDbLine
 10
43.895719
 20
151.594726
 30
0.0
 11
39.600264
 21
146.071999
 31
0.0
  0
LINE
  5
471
330
1F
100
AcDbEntity
  8
101
  6
Continuous
 62
     7
370
    30
100
AcDbLine
 10
51.995719
 20
158.467453
 30
0.0
 11
43.895719
 21
151.594726
 31
0.0
  0
LINE
  5
472
330
1F
100
AcDbEntity
  8
101
  6
Continuous
 62
     7
370
    30
100
AcDbLine
 10
59.359355
 20
163.008362
 30
0.0
 11
51.995719
 21
158.467453
 31
0.0
  0
LINE
  5
473
330
1F
100
AcDbEntity
  8
101
  6
Continuous
 62
     7
370
    30
100
AcDbLine
 10
66.722991
 20
166.076544
 30
0.0
 11
59.359355
 21
163.008362
 31
0.0
  0
LINE
  5
474
330
1F
100
AcDbEntity
  8
101
  6
Continuous
 62
     7
370
    30
100
AcDbLine
 10
74.945719
 20
169.39018
 30
0.0
 11
66.722991
 21
166.076544
 31
0.0
  0
LINE
  5
475
330
1F
100
AcDbEntity
  8
101
  6
Continuous
 62
     7
370
    30
100
AcDbLine
 10
83.291173
 20
171.844726
 30
0.0
 11
74.945719
 21
169.39018
 31
0.0
  0
LINE
  5
476
330
1F
100
AcDbEntity
  8
101
  6
Continuous
 62
     7
370
    30
100
AcDbLine
 10
91.268446
 20
173.44018
 30
0.0
 11
83.291173
 21
171.844726
 31
0.0
  0
LINE
  5
477
330
1F
100
AcDbEntity
  8
101
  6
Continuous
 62
     7
370
    30
100
AcDbLine
 10
99.122991
 20
173.44018
 30
0.0
 11
91.268446
 21
173.44018
 31
0.0
  0
LINE
  5
478
330
1F
100
AcDbEntity
  8
101
  6
Continuous
 62
     7
370
    30
100
AcDbLine
 10
107.836628
 20
173.44018
 30
0.0
 11
99.122991
 21
173.44018
 31
0.0
  0
LINE
  5
479
330
1F
100
AcDbEntity
  8
101
  6
Continuous
 62
     7
370
    30
100
AcDbLine
 10
117.409355
 20
172.826544
 30
0.0
 11
107.836628
 21
173.44018
 31
0.0
  0
LINE
  5
47A
330
1F
100
AcDbEntity
  8
101
  6
Continuous
 62
     7
370
    30
100
AcDbLine
 10
127.472991
 20
170.494726
 30
0.0
 11
117.409355
 21
172.826544
 31
0.0
  0
LINE
  5
47B
330
1F
100
AcDbEntity
  8
101
  6
Continuous
 62
     7
370
    30
100
AcDbLine
 10
136.186628
 20
167.671999
 30
0.0
 11
127.472991
 21
170.494726
 31
0.0
  0
LINE
  5
47C
330
1F
100
AcDbEntity
  8
101
  6
Continuous
 62
     7
370
    30
100
AcDbLine
 10
149.563901
 20
161.044726
 30
0.0
 11
136.186628
 21
167.671999
 31
0.0
  0
LINE
  5
47D
330
1F
100
AcDbEntity
  8
101
  6
Continuous
 62
     7
370
    30
100
AcDbLine
 10
156.313901
 20
155.031089
 30
0.0
 11
149.563901
 21
161.044726
 31
0.0
  0
LINE
  5
47E
330
1F
100
AcDbEntity
  8
101
  6
Continuous
 62
     7
370
    30
100
AcDbLine
 10
161.222991
 20
149.753817
 30
0.0
 11
156.313901
 21
155.031089
 31
0.0
  0
LINE
  5
47F
330
1F
100
AcDbEntity
  8
101
  6
Continuous
 62
     7
370
    30
100
AcDbLine
 10
165.641173
 20
142.512908
 30
0.0
 11
161.222991
 21
149.753817
 31
0.0
  0
LINE
  5
480
330
1F
100
AcDbEntity
  8
101
  6
Continuous
 62
     7
370
    30
100
AcDbLine
 10
169.077537
 20
134.412908
 30
0.0
 11
165.641173
 21
142.512908
 31
0.0
  0
LINE
  5
481
330
1F
100
AcDbEntity
  8
101
  6
Continuous
 62
     7
370
    30
100
AcDbLine
 10
169.936628
 20
125.269726
 30
0.0
 11
169.077537
 21
134.412908
 31
0.0
  0
LINE
  5
482
330
1F
100
AcDbEntity
  8
101
  6
Continuous
 62
     7
370
    30
100
AcDbLine
 10
169.813901
 20
120.421999
 30
0.0
 11
169.936628
 21
125.269726
 31
0.0
  0
LINE
  5
483
330
1F
100
AcDbEntity
  8
101
  6
Continuous
 62
     7
370
    30
100
AcDbLine
 10
168.27981
 20
113.242453
 30
0.0
 11
169.813901
 21
120.421999
 31
0.0
  0
LINE
  5
484
330
1F
100
AcDbEntity
  8
101
  6
Continuous
 62
     7
370
    30
100
AcDbLine
 10
166.561628
 20
108.394726
 30
0.0
 11
168.27981
 21
113.242453
 31
0.0
  0
LINE
  5
485
330
1F
100
AcDbEntity
  8
101
  6
Continuous
 62
     7
370
    30
100
AcDbLine
 10
164.647392
 20
105.382168
 30
0.0
 11
166.561628
 21
108.394726
 31
0.0
  0
LINE
  5
486
330
1F
100
AcDbEntity
  8
101
  6
Continuous
 62
     7
370
    30
100
AcDbLine
 10
159.075264
 20
116.06518
 30
0.0
 11
158.001401
 21
114.162908
 31
0.0
  0
LINE
  5
487
330
1F
100
AcDbEntity
  8
101
  6
Continuous
 62
     7
370
    30
100
AcDbLine
 10
159.228673
 20
119.133362
 30
0.0
 11
159.075264
 21
116.06518
 31
0.0
  0
LINE
  5
488
330
1F
100
AcDbEntity
  8
101
  6
Continuous
 62
     7
370
    30
100
AcDbLine
 10
159.228673
 20
124.901544
 30
0.0
 11
159.228673
 21
119.133362
 31
0.0
  0
LINE
  5
489
330
1F
100
AcDbEntity
  8
101
  6
Continuous
 62
     7
370
    30
100
AcDbLine
 10
157.878673
 20
130.792453
 30
0.0
 11
159.228673
 21
124.901544
 31
0.0
  0
LINE
  5
48A
330
1F
100
AcDbEntity
  8
101
  6
Continuous
 62
     7
370
    30
100
AcDbLine
 10
154.319582
 20
138.524271
 30
0.0
 11
157.878673
 21
130.792453
 31
0.0
  0
LINE
  5
48B
330
1F
100
AcDbEntity
  8
101
  6
Continuous
 62
     7
370
    30
100
AcDbLine
 10
149.287764
 20
145.028817
 30
0.0
 11
154.319582
 21
138.524271
 31
0.0
  0
LINE
  5
48C
330
1F
100
AcDbEntity
  8
101
  6
Continuous
 62
     7
370
    30
100
AcDbLine
 10
144.010491
 20
149.569726
 30
0.0
 11
149.287764
 21
145.028817
 31
0.0
  0
LINE
  5
48D
330
1F
100
AcDbEntity
  8
101
  6
Continuous
 62
     7
370
    30
100
AcDbLine
 10
138.487764
 20
153.742453
 30
0.0
 11
144.010491
 21
149.569726
 31
0.0
  0
LINE
  5
48E
330
1F
100
AcDbEntity
  8
101
  6
Continuous
 62
     7
370
    30
100
AcDbLine
 10
129.160491
 20
158.037908
 30
0.0
 11
138.487764
 21
153.742453
 31
0.0
  0
LINE
  5
48F
330
1F
100
AcDbEntity
  8
101
  6
Continuous
 62
     7
370
    30
100
AcDbLine
 10
123.024128
 20
160.860635
 30
0.0
 11
129.160491
 21
158.037908
 31
0.0
  0
LINE
  5
490
330
1F
100
AcDbEntity
  8
101
  6
Continuous
 62
     7
370
    30
100
AcDbLine
 10
114.271535
 20
162.810982
 30
0.0
 11
123.024128
 21
160.860635
 31
0.0
  0
LINE
  5
491
330
1F
100
AcDbEntity
  8
101
  6
Continuous
 62
     7
370
    30
100
AcDbLine
 10
102.528673
 20
163.192453
 30
0.0
 11
107.378597
 21
163.190186
 31
0.0
  0
LINE
  5
492
330
1F
100
AcDbEntity
  8
101
  6
Continuous
 62
     7
370
    30
100
AcDbLine
 10
94.428673
 20
163.069726
 30
0.0
 11
102.528673
 21
163.192453
 31
0.0
  0
LINE
  5
493
330
1F
100
AcDbEntity
  8
101
  6
Continuous
 62
     7
370
    30
100
AcDbLine
 10
87.310491
 20
161.596999
 30
0.0
 11
94.428673
 21
163.069726
 31
0.0
  0
LINE
  5
494
330
1F
100
AcDbEntity
  8
101
  6
Continuous
 62
     7
370
    30
100
AcDbLine
 10
76.878673
 20
159.142453
 30
0.0
 11
87.310491
 21
161.596999
 31
0.0
  0
LINE
  5
495
330
1F
100
AcDbEntity
  8
101
  6
Continuous
 62
     7
370
    30
100
AcDbLine
 10
69.637764
 20
156.074271
 30
0.0
 11
76.878673
 21
159.142453
 31
0.0
  0
LINE
  5
496
330
1F
100
AcDbEntity
  8
101
  6
Continuous
 62
     7
370
    30
100
AcDbLine
 10
63.010491
 20
152.392453
 30
0.0
 11
69.637764
 21
156.074271
 31
0.0
  0
LINE
  5
497
330
1F
100
AcDbEntity
  8
101
  6
Continuous
 62
     7
370
    30
100
AcDbLine
 10
57.119582
 20
147.483362
 30
0.0
 11
63.010491
 21
152.392453
 31
0.0
  0
LINE
  5
498
330
1F
100
AcDbEntity
  8
101
  6
Continuous
 62
     7
370
    30
100
AcDbLine
 10
51.105946
 20
140.978817
 30
0.0
 11
57.119582
 21
147.483362
 31
0.0
  0
LINE
  5
499
330
1F
100
AcDbEntity
  8
101
  6
Continuous
 62
     7
370
    30
100
AcDbLine
 10
46.810491
 20
134.96518
 30
0.0
 11
51.105946
 21
140.978817
 31
0.0
  0
LINE
  5
49A
330
1F
100
AcDbEntity
  8
101
  6
Continuous
 62
     7
370
    30
100
AcDbLine
 10
42.883219
 20
127.478817
 30
0.0
 11
46.810491
 21
134.96518
 31
0.0
  0
LINE
  5
49B
330
1F
100
AcDbEntity
  8
101
  6
Continuous
 62
     7
370
    30
100
AcDbLine
 10
42.515037
 20
121.46518
 30
0.0
 11
42.883219
 21
127.478817
 31
0.0
  0
LINE
  5
49C
330
1F
100
AcDbEntity
  8
101
  6
Continuous
 62
     7
370
    30
100
AcDbLine
 10
42.760491
 20
114.592453
 30
0.0
 11
42.515037
 21
121.46518
 31
0.0
  0
LINE
  5
49D
330
1F
100
AcDbEntity
  8
101
  6
Continuous
 62
     7
370
    30
100
AcDbLine
 10
44.110491
 20
110.787908
 30
0.0
 11
42.760491
 21
114.592453
 31
0.0
  0
LINE
  5
49E
330
1F
100
AcDbEntity
  8
101
  6
Continuous
 62
     7
370
    30
100
AcDbLine
 10
37.483219
 20
120.053817
 30
0.0
 11
36.194582
 21
119.685635
 31
0.0
  0
LINE
  5
49F
330
1F
100
AcDbEntity
  8
101
  6
Continuous
 62
     7
370
    30
100
AcDbLine
 10
38.955946
 20
119.562908
 30
0.0
 11
37.483219
 21
120.053817
 31
0.0
  0
LINE
  5
4A0
330
1F
100
AcDbEntity
  8
101
  6
Continuous
 62
     7
370
    30
100
AcDbLine
 10
33.126401
 20
119.931089
 30
0.0
 11
34.169582
 21
119.133362
 31
0.0
  0
LINE
  5
4A1
330
1F
100
AcDbEntity
  8
101
  6
Continuous
 62
     7
370
    30
100
AcDbLine
 10
33.371855
 20
122.078817
 30
0.0
 11
33.126401
 21
119.931089
 31
0.0
  0
LINE
  5
4A2
330
1F
100
AcDbEntity
  8
101
  6
Continuous
 62
     7
370
    30
100
AcDbLine
 10
35.703673
 20
122.999271
 30
0.0
 11
33.371855
 21
122.078817
 31
0.0
  0
LINE
  5
4A3
330
1F
100
AcDbEntity
  8
101
  6
Continuous
 62
     7
370
    30
100
AcDbLine
 10
38.035491
 20
122.937908
 30
0.0
 11
35.703673
 21
122.999271
 31
0.0
  0
LINE
  5
4A4
330
1F
100
AcDbEntity
  8
101
  6
Continuous
 62
     7
370
    30
100
AcDbLine
 10
40.121855
 20
122.753817
 30
0.0
 11
38.035491
 21
122.937908
 31
0.0
  0
LINE
  5
4A5
330
1F
100
AcDbEntity
  8
101
  6
Continuous
 62
     7
370
    30
100
AcDbLine
 10
41.349128
 20
120.974271
 30
0.0
 11
40.121855
 21
122.753817
 31
0.0
  0
LINE
  5
4A6
330
1F
100
AcDbEntity
  8
101
  6
Continuous
 62
     7
370
    30
100
AcDbLine
 10
40.980946
 20
119.44018
 30
0.0
 11
41.349128
 21
120.974271
 31
0.0
  0
LINE
  5
4A7
330
1F
100
AcDbEntity
  8
101
  6
Continuous
 62
     7
370
    30
100
AcDbLine
 10
34.046855
 20
107.842453
 30
0.0
 11
34.169582
 21
119.133362
 31
0.0
  0
LINE
  5
4A8
330
1F
100
AcDbEntity
  8
101
  6
Continuous
 62
     7
370
    30
100
AcDbLine
 10
33.310491
 20
88.942453
 30
0.0
 11
34.046855
 21
107.842453
 31
0.0
  0
LINE
  5
4A9
330
1F
100
AcDbEntity
  8
101
  6
Continuous
 62
     7
370
    30
100
AcDbLine
 10
32.880946
 20
68.876544
 30
0.0
 11
33.310491
 21
88.942453
 31
0.0
  0
LINE
  5
4AA
330
1F
100
AcDbEntity
  8
101
  6
Continuous
 62
     7
370
    30
100
AcDbLine
 10
40.183219
 20
113.487908
 30
0.0
 11
40.428673
 21
118.642453
 31
0.0
  0
LINE
  5
4AB
330
1F
100
AcDbEntity
  8
101
  6
Continuous
 62
     7
370
    30
100
AcDbLine
 10
39.569582
 20
99.926544
 30
0.0
 11
40.183219
 21
113.487908
 31
0.0
  0
LINE
  5
4AC
330
1F
100
AcDbEntity
  8
101
  6
Continuous
 62
     7
370
    30
100
AcDbLine
 10
39.446855
 20
88.942453
 30
0.0
 11
39.569582
 21
99.926544
 31
0.0
  0
LINE
  5
4AD
330
1F
100
AcDbEntity
  8
101
  6
Continuous
 62
     7
370
    30
100
AcDbLine
 10
39.413187
 20
78.340663
 30
0.0
 11
39.446855
 21
88.942453
 31
0.0
  0
LINE
  5
4AE
330
1F
100
AcDbEntity
  8
101
  6
Continuous
 62
     7
370
    30
100
AcDbLine
 10
44.110491
 20
108.824271
 30
0.0
 11
44.110491
 21
118.396999
 31
0.0
  0
LINE
  5
4AF
330
1F
100
AcDbEntity
  8
101
  6
Continuous
 62
     7
370
    30
100
AcDbLine
 10
43.951256
 20
83.080995
 30
0.0
 11
44.110491
 21
108.824271
 31
0.0
  0
LINE
  5
4B0
330
1F
100
AcDbEntity
  8
101
  6
Continuous
 62
     7
370
    30
100
AcDbLine
 10
35.887764
 20
-18.93482
 30
0.0
 11
39.431514
 21
-18.996183
 31
0.0
  0
LINE
  5
4B1
330
1F
100
AcDbEntity
  8
101
  6
Continuous
 62
     7
370
    30
100
AcDbLine
 10
36.255946
 20
-23.107547
 30
0.0
 11
35.887764
 21
-18.93482
 31
0.0
  0
LINE
  5
4B2
330
1F
100
AcDbEntity
  8
101
  6
Continuous
 62
     7
370
    30
100
AcDbLine
 10
40.457225
 20
-23.377701
 30
0.0
 11
36.255946
 21
-23.107547
 31
0.0
  0
LINE
  5
4B3
330
1F
100
AcDbEntity
  8
101
  6
Continuous
 62
     7
370
    30
100
AcDbLine
 10
170.151401
 20
-29.366638
 30
0.0
 11
166.59231
 21
-29.980274
 31
0.0
  0
LINE
  5
4B4
330
1F
100
AcDbEntity
  8
101
  6
Continuous
 62
     7
370
    30
100
AcDbLine
 10
169.821656
 20
-24.463607
 30
0.0
 11
170.151401
 21
-29.366638
 31
0.0
  0
LINE
  5
4B5
330
1F
100
AcDbEntity
  8
101
  6
Continuous
 62
     7
370
    30
100
AcDbLine
 10
170.151401
 20
-29.366638
 30
0.0
 11
169.821656
 21
-24.463607
 31
0.0
  0
LINE
  5
4B6
330
1F
100
AcDbEntity
  8
101
  6
Continuous
 62
     7
370
    30
100
AcDbLine
 10
164.505946
 20
45.128817
 30
0.0
 11
163.155946
 21
46.110635
 31
0.0
  0
LINE
  5
4B7
330
1F
100
AcDbEntity
  8
101
  6
Continuous
 62
     7
370
    30
100
AcDbLine
 10
166.346855
 20
44.883362
 30
0.0
 11
164.505946
 21
45.128817
 31
0.0
  0
LINE
  5
4B8
330
1F
100
AcDbEntity
  8
101
  6
Continuous
 62
     7
370
    30
100
AcDbLine
 10
165.978673
 20
41.569726
 30
0.0
 11
166.346855
 21
44.883362
 31
0.0
  0
LINE
  5
4B9
330
1F
100
AcDbEntity
  8
101
  6
Continuous
 62
     7
370
    30
100
AcDbLine
 10
164.015037
 20
41.569726
 30
0.0
 11
163.401401
 21
39.421999
 31
0.0
  0
LINE
  5
4BA
330
1F
100
AcDbEntity
  8
101
  6
Continuous
 62
     7
370
    30
100
AcDbLine
 10
165.978673
 20
41.569726
 30
0.0
 11
164.015037
 21
41.569726
 31
0.0
  0
LINE
  5
4BB
330
1F
100
AcDbEntity
  8
101
  6
Continuous
 62
     7
370
    30
100
AcDbLine
 10
40.183219
 20
49.546999
 30
0.0
 11
36.869582
 21
50.59018
 31
0.0
  0
LINE
  5
4BC
330
1F
100
AcDbEntity
  8
101
  6
Continuous
 62
     7
370
    30
100
AcDbLine
 10
36.869582
 20
50.59018
 30
0.0
 11
37.237764
 21
56.112908
 31
0.0
  0
LINE
  5
4BD
330
1F
100
AcDbEntity
  8
101
  6
Continuous
 62
     7
370
    30
100
AcDbLine
 10
161.560491
 20
110.481089
 30
0.0
 11
160.087764
 21
109.867453
 31
0.0
  0
LINE
  5
4BE
330
1F
100
AcDbEntity
  8
101
  6
Continuous
 62
     7
370
    30
100
AcDbLine
 10
163.524128
 20
109.744726
 30
0.0
 11
161.560491
 21
110.481089
 31
0.0
  0
LINE
  5
4BF
330
1F
100
AcDbEntity
  8
101
  6
Continuous
 62
     7
370
    30
100
AcDbLine
 10
110.383219
 20
168.162908
 30
0.0
 11
108.174128
 21
166.812908
 31
0.0
  0
LINE
  5
4C0
330
1F
100
AcDbEntity
  8
101
  6
Continuous
 62
     7
370
    30
100
AcDbLine
 10
113.083219
 20
166.567453
 30
0.0
 11
110.383219
 21
168.162908
 31
0.0
  0
LINE
  5
4C1
330
1F
100
AcDbEntity
  8
101
  6
Continuous
 62
     7
370
    30
100
AcDbLine
 10
106.333219
 20
166.444726
 30
0.0
 11
107.315037
 21
164.849271
 31
0.0
  0
LINE
  5
4C2
330
1F
100
AcDbEntity
  8
101
  6
Continuous
 62
     7
370
    30
100
AcDbLine
 10
106.455946
 20
169.267453
 30
0.0
 11
106.333219
 21
166.444726
 31
0.0
  0
LINE
  5
4C3
330
1F
100
AcDbEntity
  8
101
  6
Continuous
 62
     7
370
    30
100
AcDbLine
 10
110.137764
 20
171.967453
 30
0.0
 11
106.455946
 21
169.267453
 31
0.0
  0
LINE
  5
4C4
330
1F
100
AcDbEntity
  8
101
  6
Continuous
 62
     7
370
    30
100
AcDbLine
 10
114.555946
 20
171.599271
 30
0.0
 11
110.137764
 21
171.967453
 31
0.0
  0
LINE
  5
4C5
330
1F
100
AcDbEntity
  8
101
  6
Continuous
 62
     7
370
    30
100
AcDbLine
 10
115.783219
 20
167.181089
 30
0.0
 11
114.555946
 21
171.599271
 31
0.0
  0
LINE
  5
4C6
330
1F
100
AcDbEntity
  8
101
  6
Continuous
 62
     7
370
    30
100
AcDbLine
 10
114.187764
 20
164.603817
 30
0.0
 11
115.783219
 21
167.181089
 31
0.0
  0
LINE
  5
4C7
330
1F
100
AcDbEntity
  8
101
  6
Continuous
 62
     7
370
    30
100
AcDbLine
 10
109.708219
 20
102.381089
 30
0.0
 11
107.315037
 21
164.849271
 31
0.0
  0
LINE
  5
4C8
330
1F
100
AcDbEntity
  8
101
  6
Continuous
 62
     7
370
    30
100
AcDbLine
 10
117.120474
 20
101.838729
 30
0.0
 11
114.187764
 21
164.603817
 31
0.0
  0
LINE
  5
4C9
330
1F
100
AcDbEntity
  8
101
  6
Continuous
 62
     7
370
    30
100
AcDbLine
 10
157.633219
 20
104.221999
 30
0.0
 11
157.755946
 21
117.231089
 31
0.0
  0
LINE
  5
4CA
330
1F
100
AcDbEntity
  8
101
  6
Continuous
 62
     7
370
    30
100
AcDbLine
 10
159.213902
 20
86.478235
 30
0.0
 11
157.633219
 21
104.221999
 31
0.0
  0
LINE
  5
4CB
330
1F
100
AcDbEntity
  8
101
  6
Continuous
 62
     7
370
    30
100
AcDbLine
 10
158.983219
 20
108.271999
 30
0.0
 11
160.208123
 21
85.660764
 31
0.0
  0
LINE
  5
4CC
330
1F
100
AcDbEntity
  8
101
  6
Continuous
 62
     7
370
    30
100
AcDbLine
 10
157.940037
 20
109.928817
 30
0.0
 11
158.983219
 21
108.271999
 31
0.0
  0
LINE
  5
4CD
330
1F
100
AcDbEntity
  8
101
  6
Continuous
 62
     7
370
    30
100
AcDbLine
 10
158.185491
 20
111.585635
 30
0.0
 11
157.940037
 21
109.928817
 31
0.0
  0
LINE
  5
4CE
330
1F
100
AcDbEntity
  8
101
  6
Continuous
 62
     7
370
    30
100
AcDbLine
 10
160.885491
 20
113.242453
 30
0.0
 11
158.185491
 21
111.585635
 31
0.0
  0
LINE
  5
4CF
330
1F
100
AcDbEntity
  8
101
  6
Continuous
 62
     7
370
    30
100
AcDbLine
 10
164.076401
 20
112.996999
 30
0.0
 11
160.885491
 21
113.242453
 31
0.0
  0
LINE
  5
4D0
330
1F
100
AcDbEntity
  8
101
  6
Continuous
 62
     7
370
    30
100
AcDbLine
 10
166.162764
 20
111.34018
 30
0.0
 11
164.076401
 21
112.996999
 31
0.0
  0
LINE
  5
4D1
330
1F
100
AcDbEntity
  8
101
  6
Continuous
 62
     7
370
    30
100
AcDbLine
 10
165.91731
 20
109.069726
 30
0.0
 11
166.162764
 21
111.34018
 31
0.0
  0
LINE
  5
4D2
330
1F
100
AcDbEntity
  8
101
  6
Continuous
 62
     7
370
    30
100
AcDbLine
 10
164.505946
 20
108.701544
 30
0.0
 11
165.91731
 21
109.069726
 31
0.0
  0
LINE
  5
4D3
330
1F
100
AcDbEntity
  8
101
  6
Continuous
 62
     7
370
    30
100
AcDbLine
 10
165.753988
 20
79.413152
 30
0.0
 11
164.505946
 21
108.701544
 31
0.0
  0
LINE
  5
4D4
330
1F
100
AcDbEntity
  8
101
  6
Continuous
 62
     7
370
    30
100
AcDbLine
 10
167.328673
 20
75.871999
 30
0.0
 11
168.719489
 21
74.770549
 31
0.0
  0
LINE
  5
4D5
330
1F
100
AcDbEntity
  8
101
  6
Continuous
 62
     7
370
    30
100
AcDbLine
 10
163.953673
 20
79.860635
 30
0.0
 11
167.328673
 21
75.871999
 31
0.0
  0
LINE
  5
4D6
330
1F
100
AcDbEntity
  8
101
  6
Continuous
 62
     7
370
    30
100
AcDbLine
 10
159.351401
 20
84.34018
 30
0.0
 11
163.953673
 21
79.860635
 31
0.0
  0
LINE
  5
4D7
330
1F
100
AcDbEntity
  8
101
  6
Continuous
 62
     7
370
    30
100
AcDbLine
 10
154.871855
 20
87.776544
 30
0.0
 11
159.351401
 21
84.34018
 31
0.0
  0
LINE
  5
4D8
330
1F
100
AcDbEntity
  8
101
  6
Continuous
 62
     7
370
    30
100
AcDbLine
 10
147.078673
 20
91.519726
 30
0.0
 11
154.871855
 21
87.776544
 31
0.0
  0
LINE
  5
4D9
330
1F
100
AcDbEntity
  8
101
  6
Continuous
 62
     7
370
    30
100
AcDbLine
 10
138.978673
 20
94.649271
 30
0.0
 11
147.078673
 21
91.519726
 31
0.0
  0
LINE
  5
4DA
330
1F
100
AcDbEntity
  8
101
  6
Continuous
 62
     7
370
    30
100
AcDbLine
 10
128.301401
 20
98.208362
 30
0.0
 11
138.978673
 21
94.649271
 31
0.0
  0
LINE
  5
4DB
330
1F
100
AcDbEntity
  8
101
  6
Continuous
 62
     7
370
    30
100
AcDbLine
 10
118.728673
 20
99.926544
 30
0.0
 11
128.301401
 21
98.208362
 31
0.0
  0
LINE
  5
4DC
330
1F
100
AcDbEntity
  8
101
  6
Continuous
 62
     7
370
    30
100
AcDbLine
 10
110.199128
 20
100.54018
 30
0.0
 11
118.728673
 21
99.926544
 31
0.0
  0
LINE
  5
4DD
330
1F
100
AcDbEntity
  8
101
  6
Continuous
 62
     7
370
    30
100
AcDbLine
 10
103.633219
 20
99.926544
 30
0.0
 11
110.199128
 21
100.54018
 31
0.0
  0
LINE
  5
4DE
330
1F
100
AcDbEntity
  8
101
  6
Continuous
 62
     7
370
    30
100
AcDbLine
 10
95.962764
 20
99.926544
 30
0.0
 11
103.633219
 21
99.926544
 31
0.0
  0
LINE
  5
4DF
330
1F
100
AcDbEntity
  8
101
  6
Continuous
 62
     7
370
    30
100
AcDbLine
 10
87.371855
 20
98.944726
 30
0.0
 11
95.962764
 21
99.926544
 31
0.0
  0
LINE
  5
4E0
330
1F
100
AcDbEntity
  8
101
  6
Continuous
 62
     7
370
    30
100
AcDbLine
 10
80.805946
 20
97.103817
 30
0.0
 11
87.371855
 21
98.944726
 31
0.0
  0
LINE
  5
4E1
330
1F
100
AcDbEntity
  8
101
  6
Continuous
 62
     7
370
    30
100
AcDbLine
 10
72.890037
 20
95.14018
 30
0.0
 11
80.805946
 21
97.103817
 31
0.0
  0
LINE
  5
4E2
330
1F
100
AcDbEntity
  8
101
  6
Continuous
 62
     7
370
    30
100
AcDbLine
 10
63.869582
 20
91.826544
 30
0.0
 11
72.890037
 21
95.14018
 31
0.0
  0
LINE
  5
4E3
330
1F
100
AcDbEntity
  8
101
  6
Continuous
 62
     7
370
    30
100
AcDbLine
 10
57.610491
 20
89.126544
 30
0.0
 11
63.869582
 21
91.826544
 31
0.0
  0
LINE
  5
4E4
330
1F
100
AcDbEntity
  8
101
  6
Continuous
 62
     7
370
    30
100
AcDbLine
 10
52.026401
 20
85.69018
 30
0.0
 11
57.610491
 21
89.126544
 31
0.0
  0
LINE
  5
4E5
330
1F
100
AcDbEntity
  8
101
  6
Continuous
 62
     7
370
    30
100
AcDbLine
 10
46.933219
 20
82.437908
 30
0.0
 11
52.026401
 21
85.69018
 31
0.0
  0
LINE
  5
4E6
330
1F
100
AcDbEntity
  8
101
  6
Continuous
 62
     7
370
    30
100
AcDbLine
 10
39.446855
 20
75.994726
 30
0.0
 11
46.933219
 21
82.437908
 31
0.0
  0
LINE
  5
4E7
330
1F
100
AcDbEntity
  8
101
  6
Continuous
 62
     7
370
    30
100
AcDbLine
 10
35.949128
 20
71.576544
 30
0.0
 11
39.446855
 21
75.994726
 31
0.0
  0
LINE
  5
4E8
330
1F
100
AcDbEntity
  8
101
  6
Continuous
 62
     7
370
    30
100
AcDbLine
 10
33.555946
 20
67.403817
 30
0.0
 11
35.949128
 21
71.576544
 31
0.0
  0
LINE
  5
4E9
330
1F
100
AcDbEntity
  8
101
  6
Continuous
 62
     7
370
    30
100
AcDbLine
 10
31.469582
 20
63.721999
 30
0.0
 11
33.555946
 21
67.403817
 31
0.0
  0
LINE
  5
4EA
330
1F
100
AcDbEntity
  8
101
  6
Continuous
 62
     7
370
    30
100
AcDbLine
 10
30.549128
 20
59.794726
 30
0.0
 11
31.469582
 21
63.721999
 31
0.0
  0
LINE
  5
4EB
330
1F
100
AcDbEntity
  8
101
  6
Continuous
 62
     7
370
    30
100
AcDbLine
 10
29.996855
 20
56.419726
 30
0.0
 11
30.549128
 21
59.794726
 31
0.0
  0
LINE
  5
4EC
330
1F
100
AcDbEntity
  8
101
  6
Continuous
 62
     7
370
    30
100
AcDbLine
 10
29.996855
 20
51.387908
 30
0.0
 11
29.996855
 21
56.419726
 31
0.0
  0
LINE
  5
4ED
330
1F
100
AcDbEntity
  8
101
  6
Continuous
 62
     7
370
    30
100
AcDbLine
 10
31.040037
 20
45.435635
 30
0.0
 11
32.21451
 21
42.736033
 31
0.0
  0
LINE
  5
4EE
330
1F
100
AcDbEntity
  8
101
  6
Continuous
 62
     7
370
    30
100
AcDbLine
 10
29.935491
 20
48.381089
 30
0.0
 11
31.040037
 21
45.435635
 31
0.0
  0
LINE
  5
4EF
330
1F
100
AcDbEntity
  8
101
  6
Continuous
 62
     7
370
    30
100
AcDbLine
 10
29.321855
 20
52.553817
 30
0.0
 11
29.935491
 21
48.381089
 31
0.0
  0
LINE
  5
4F0
330
1F
100
AcDbEntity
  8
101
  6
Continuous
 62
     7
370
    30
100
AcDbLine
 10
29.444582
 20
58.076544
 30
0.0
 11
29.321855
 21
52.553817
 31
0.0
  0
LINE
  5
4F1
330
1F
100
AcDbEntity
  8
101
  6
Continuous
 62
     7
370
    30
100
AcDbLine
 10
30.794582
 20
63.599271
 30
0.0
 11
29.444582
 21
58.076544
 31
0.0
  0
LINE
  5
4F2
330
1F
100
AcDbEntity
  8
101
  6
Continuous
 62
     7
370
    30
100
AcDbLine
 10
32.880946
 20
68.876544
 30
0.0
 11
30.794582
 21
63.599271
 31
0.0
  0
LINE
  5
4F3
330
1F
100
AcDbEntity
  8
101
  6
Continuous
 62
     7
370
    30
100
AcDbLine
 10
36.071855
 20
74.521999
 30
0.0
 11
32.880946
 21
68.876544
 31
0.0
  0
LINE
  5
4F4
330
1F
100
AcDbEntity
  8
101
  6
Continuous
 62
     7
370
    30
100
AcDbLine
 10
41.226401
 20
80.412908
 30
0.0
 11
36.071855
 21
74.521999
 31
0.0
  0
LINE
  5
4F5
330
1F
100
AcDbEntity
  8
101
  6
Continuous
 62
     7
370
    30
100
AcDbLine
 10
47.11731
 20
86.181089
 30
0.0
 11
41.226401
 21
80.412908
 31
0.0
  0
LINE
  5
4F6
330
1F
100
AcDbEntity
  8
101
  6
Continuous
 62
     7
370
    30
100
AcDbLine
 10
54.849128
 20
90.353817
 30
0.0
 11
47.11731
 21
86.181089
 31
0.0
  0
LINE
  5
4F7
330
1F
100
AcDbEntity
  8
101
  6
Continuous
 62
     7
370
    30
100
AcDbLine
 10
63.685491
 20
94.771999
 30
0.0
 11
54.849128
 21
90.353817
 31
0.0
  0
LINE
  5
4F8
330
1F
100
AcDbEntity
  8
101
  6
Continuous
 62
     7
370
    30
100
AcDbLine
 10
72.399128
 20
97.84018
 30
0.0
 11
63.685491
 21
94.771999
 31
0.0
  0
LINE
  5
4F9
330
1F
100
AcDbEntity
  8
101
  6
Continuous
 62
     7
370
    30
100
AcDbLine
 10
83.321855
 20
101.031089
 30
0.0
 11
72.399128
 21
97.84018
 31
0.0
  0
LINE
  5
4FA
330
1F
100
AcDbEntity
  8
101
  6
Continuous
 62
     7
370
    30
100
AcDbLine
 10
100.135491
 20
102.871999
 30
0.0
 11
83.321855
 21
101.031089
 31
0.0
  0
LINE
  5
4FB
330
1F
100
AcDbEntity
  8
101
  6
Continuous
 62
     7
370
    30
100
AcDbLine
 10
109.708219
 20
102.381089
 30
0.0
 11
100.135491
 21
102.871999
 31
0.0
  0
LINE
  5
4FC
330
1F
100
AcDbEntity
  8
101
  6
Continuous
 62
     7
370
    30
100
AcDbLine
 10
119.771855
 20
101.644726
 30
0.0
 11
109.708219
 21
102.381089
 31
0.0
  0
LINE
  5
4FD
330
1F
100
AcDbEntity
  8
101
  6
Continuous
 62
     7
370
    30
100
AcDbLine
 10
129.221855
 20
99.926544
 30
0.0
 11
119.771855
 21
101.644726
 31
0.0
  0
LINE
  5
4FE
330
1F
100
AcDbEntity
  8
101
  6
Continuous
 62
     7
370
    30
100
AcDbLine
 10
136.953673
 20
97.962908
 30
0.0
 11
129.221855
 21
99.926544
 31
0.0
  0
LINE
  5
4FF
330
1F
100
AcDbEntity
  8
101
  6
Continuous
 62
     7
370
    30
100
AcDbLine
 10
147.385491
 20
94.035635
 30
0.0
 11
136.953673
 21
97.962908
 31
0.0
  0
LINE
  5
500
330
1F
100
AcDbEntity
  8
101
  6
Continuous
 62
     7
370
    30
100
AcDbLine
 10
156.590037
 20
88.635635
 30
0.0
 11
147.385491
 21
94.035635
 31
0.0
  0
LINE
  5
501
330
1F
100
AcDbEntity
  8
101
  6
Continuous
 62
     7
370
    30
100
AcDbLine
 10
162.112764
 20
84.094726
 30
0.0
 11
156.590037
 21
88.635635
 31
0.0
  0
LINE
  5
502
330
1F
100
AcDbEntity
  8
101
  6
Continuous
 62
     7
370
    30
100
AcDbLine
 10
167.26731
 20
77.467453
 30
0.0
 11
162.112764
 21
84.094726
 31
0.0
  0
LINE
  5
503
330
1F
100
AcDbEntity
  8
101
  6
Continuous
 62
     7
370
    30
100
AcDbLine
 10
170.703673
 20
71.085635
 30
0.0
 11
167.26731
 21
77.467453
 31
0.0
  0
LINE
  5
504
330
1F
100
AcDbEntity
  8
101
  6
Continuous
 62
     7
370
    30
100
AcDbLine
 10
173.158219
 20
65.071999
 30
0.0
 11
170.703673
 21
71.085635
 31
0.0
  0
LINE
  5
505
330
1F
100
AcDbEntity
  8
101
  6
Continuous
 62
     7
370
    30
100
AcDbLine
 10
174.01731
 20
58.935635
 30
0.0
 11
173.158219
 21
65.071999
 31
0.0
  0
LINE
  5
506
330
1F
100
AcDbEntity
  8
101
  6
Continuous
 62
     7
370
    30
100
AcDbLine
 10
173.771855
 20
53.535635
 30
0.0
 11
174.01731
 21
58.935635
 31
0.0
  0
LINE
  5
507
330
1F
100
AcDbEntity
  8
101
  6
Continuous
 62
     7
370
    30
100
AcDbLine
 10
171.808219
 20
46.417453
 30
0.0
 11
173.771855
 21
53.535635
 31
0.0
  0
LINE
  5
508
330
1F
100
AcDbEntity
  8
101
  6
Continuous
 62
     7
370
    30
100
AcDbLine
 10
168.249128
 20
41.81518
 30
0.0
 11
171.808219
 21
46.417453
 31
0.0
  0
LINE
  5
509
330
1F
100
AcDbEntity
  8
101
  6
Continuous
 62
     7
370
    30
100
AcDbLine
 10
161.990037
 20
54.394726
 30
0.0
 11
161.990037
 21
50.835635
 31
0.0
  0
LINE
  5
50A
330
1F
100
AcDbEntity
  8
101
  6
Continuous
 62
     7
370
    30
100
AcDbLine
 10
162.112764
 20
59.303817
 30
0.0
 11
161.990037
 21
54.394726
 31
0.0
  0
LINE
  5
50B
330
1F
100
AcDbEntity
  8
101
  6
Continuous
 62
     7
370
    30
100
AcDbLine
 10
160.51731
 20
64.335635
 30
0.0
 11
162.112764
 21
59.303817
 31
0.0
  0
LINE
  5
50C
330
1F
100
AcDbEntity
  8
101
  6
Continuous
 62
     7
370
    30
100
AcDbLine
 10
157.571855
 20
69.735635
 30
0.0
 11
160.51731
 21
64.335635
 31
0.0
  0
LINE
  5
50D
330
1F
100
AcDbEntity
  8
101
  6
Continuous
 62
     7
370
    30
100
AcDbLine
 10
152.662764
 20
75.381089
 30
0.0
 11
157.571855
 21
69.735635
 31
0.0
  0
LINE
  5
50E
330
1F
100
AcDbEntity
  8
101
  6
Continuous
 62
     7
370
    30
100
AcDbLine
 10
146.280946
 20
80.167453
 30
0.0
 11
152.662764
 21
75.381089
 31
0.0
  0
LINE
  5
50F
330
1F
100
AcDbEntity
  8
101
  6
Continuous
 62
     7
370
    30
100
AcDbLine
 10
139.040037
 20
84.094726
 30
0.0
 11
146.280946
 21
80.167453
 31
0.0
  0
LINE
  5
510
330
1F
100
AcDbEntity
  8
101
  6
Continuous
 62
     7
370
    30
100
AcDbLine
 10
132.290037
 20
86.917453
 30
0.0
 11
139.040037
 21
84.094726
 31
0.0
  0
LINE
  5
511
330
1F
100
AcDbEntity
  8
101
  6
Continuous
 62
     7
370
    30
100
AcDbLine
 10
124.558219
 20
88.758362
 30
0.0
 11
132.290037
 21
86.917453
 31
0.0
  0
LINE
  5
512
330
1F
100
AcDbEntity
  8
101
  6
Continuous
 62
     7
370
    30
100
AcDbLine
 10
117.056539
 20
89.603616
 30
0.0
 11
124.558219
 21
88.758362
 31
0.0
  0
LINE
  5
513
330
1F
100
AcDbEntity
  8
101
  6
Continuous
 62
     7
370
    30
100
AcDbLine
 10
103.449128
 20
90.353817
 30
0.0
 11
109.452196
 21
90.230557
 31
0.0
  0
LINE
  5
514
330
1F
100
AcDbEntity
  8
101
  6
Continuous
 62
     7
370
    30
100
AcDbLine
 10
95.594582
 20
89.985635
 30
0.0
 11
103.449128
 21
90.353817
 31
0.0
  0
LINE
  5
515
330
1F
100
AcDbEntity
  8
101
  6
Continuous
 62
     7
370
    30
100
AcDbLine
 10
87.371855
 20
89.126544
 30
0.0
 11
95.594582
 21
89.985635
 31
0.0
  0
LINE
  5
516
330
1F
100
AcDbEntity
  8
101
  6
Continuous
 62
     7
370
    30
100
AcDbLine
 10
78.780946
 20
86.917453
 30
0.0
 11
87.371855
 21
89.126544
 31
0.0
  0
LINE
  5
517
330
1F
100
AcDbEntity
  8
101
  6
Continuous
 62
     7
370
    30
100
AcDbLine
 10
69.208219
 20
83.603817
 30
0.0
 11
78.780946
 21
86.917453
 31
0.0
  0
LINE
  5
518
330
1F
100
AcDbEntity
  8
101
  6
Continuous
 62
     7
370
    30
100
AcDbLine
 10
59.390037
 20
78.694726
 30
0.0
 11
69.208219
 21
83.603817
 31
0.0
  0
LINE
  5
519
330
1F
100
AcDbEntity
  8
101
  6
Continuous
 62
     7
370
    30
100
AcDbLine
 10
52.762764
 20
74.767453
 30
0.0
 11
59.390037
 21
78.694726
 31
0.0
  0
LINE
  5
51A
330
1F
100
AcDbEntity
  8
101
  6
Continuous
 62
     7
370
    30
100
AcDbLine
 10
47.362764
 20
68.631089
 30
0.0
 11
52.762764
 21
74.767453
 31
0.0
  0
LINE
  5
51B
330
1F
100
AcDbEntity
  8
101
  6
Continuous
 62
     7
370
    30
100
AcDbLine
 10
44.049128
 20
63.353817
 30
0.0
 11
47.362764
 21
68.631089
 31
0.0
  0
LINE
  5
51C
330
1F
100
AcDbEntity
  8
101
  6
Continuous
 62
     7
370
    30
100
AcDbLine
 10
41.901401
 20
56.112908
 30
0.0
 11
44.049128
 21
63.353817
 31
0.0
  0
LINE
  5
51D
330
1F
100
AcDbEntity
  8
101
  6
Continuous
 62
     7
370
    30
100
AcDbLine
 10
41.410491
 20
50.896999
 30
0.0
 11
41.901401
 21
56.112908
 31
0.0
  0
LINE
  5
51E
330
1F
100
AcDbEntity
  8
101
  6
Continuous
 62
     7
370
    30
100
AcDbLine
 10
42.574028
 20
46.900595
 30
0.0
 11
41.410491
 21
50.896999
 31
0.0
  0
LINE
  5
51F
330
1F
100
AcDbEntity
  8
101
  6
Continuous
 62
     7
370
    30
100
AcDbLine
 10
42.269582
 20
30.156089
 30
0.0
 11
38.383442
 21
33.352652
 31
0.0
  0
LINE
  5
520
330
1F
100
AcDbEntity
  8
101
  6
Continuous
 62
     7
370
    30
100
AcDbLine
 10
32.083219
 20
10.396999
 30
0.0
 11
32.353225
 21
-6.035911
 31
0.0
  0
LINE
  5
521
330
1F
100
AcDbEntity
  8
101
  6
Continuous
 62
     7
370
    30
100
AcDbLine
 10
32.26731
 20
33.469726
 30
0.0
 11
32.083219
 21
10.396999
 31
0.0
  0
LINE
  5
522
330
1F
100
AcDbEntity
  8
101
  6
Continuous
 62
     7
370
    30
100
AcDbLine
 10
32.144582
 20
55.008362
 30
0.0
 11
32.26731
 21
33.469726
 31
0.0
  0
LINE
  5
523
330
1F
100
AcDbEntity
  8
101
  6
Continuous
 62
     7
370
    30
100
AcDbLine
 10
33.985491
 20
56.358362
 30
0.0
 11
32.144582
 21
55.008362
 31
0.0
  0
LINE
  5
524
330
1F
100
AcDbEntity
  8
101
  6
Continuous
 62
     7
370
    30
100
AcDbLine
 10
37.237764
 20
56.112908
 30
0.0
 11
33.985491
 21
56.358362
 31
0.0
  0
LINE
  5
525
330
1F
100
AcDbEntity
  8
101
  6
Continuous
 62
     7
370
    30
100
AcDbLine
 10
39.630946
 20
54.762908
 30
0.0
 11
37.237764
 21
56.112908
 31
0.0
  0
LINE
  5
526
330
1F
100
AcDbEntity
  8
101
  6
Continuous
 62
     7
370
    30
100
AcDbLine
 10
40.183219
 20
49.546999
 30
0.0
 11
39.630946
 21
54.762908
 31
0.0
  0
LINE
  5
527
330
1F
100
AcDbEntity
  8
101
  6
Continuous
 62
     7
370
    30
100
AcDbLine
 10
38.771855
 20
48.135635
 30
0.0
 11
40.183219
 21
49.546999
 31
0.0
  0
LINE
  5
528
330
1F
100
AcDbEntity
  8
101
  6
Continuous
 62
     7
370
    30
100
AcDbLine
 10
38.526401
 20
36.967453
 30
0.0
 11
38.771855
 21
48.135635
 31
0.0
  0
LINE
  5
529
330
1F
100
AcDbEntity
  8
101
  6
Continuous
 62
     7
370
    30
100
AcDbLine
 10
37.66731
 20
15.244726
 30
0.0
 11
38.526401
 21
36.967453
 31
0.0
  0
LINE
  5
52A
330
1F
100
AcDbEntity
  8
101
  6
Continuous
 62
     7
370
    30
100
AcDbLine
 10
37.829889
 20
0.465793
 30
0.0
 11
37.66731
 21
15.244726
 31
0.0
  0
LINE
  5
52B
330
1F
100
AcDbEntity
  8
101
  6
Continuous
 62
     7
370
    30
100
AcDbLine
 10
42.269582
 20
30.156089
 30
0.0
 11
42.760491
 21
57.156089
 31
0.0
  0
LINE
  5
52C
330
1F
100
AcDbEntity
  8
101
  6
Continuous
 62
     7
370
    30
100
AcDbLine
 10
41.778673
 20
3.953817
 30
0.0
 11
42.269582
 21
30.156089
 31
0.0
  0
LINE
  5
52D
330
1F
100
AcDbEntity
  8
101
  6
Continuous
 62
     7
370
    30
100
AcDbLine
 10
169.230946
 20
23.344726
 30
0.0
 11
170.438427
 21
1.955172
 31
0.0
  0
LINE
  5
52E
330
1F
100
AcDbEntity
  8
101
  6
Continuous
 62
     7
370
    30
100
AcDbLine
 10
168.249128
 20
41.81518
 30
0.0
 11
169.230946
 21
23.344726
 31
0.0
  0
LINE
  5
52F
330
1F
100
AcDbEntity
  8
101
  6
Continuous
 62
     7
370
    30
100
AcDbLine
 10
168.555946
 20
42.612908
 30
0.0
 11
168.249128
 21
41.81518
 31
0.0
  0
LINE
  5
530
330
1F
100
AcDbEntity
  8
101
  6
Continuous
 62
     7
370
    30
100
AcDbLine
 10
168.61731
 20
50.406089
 30
0.0
 11
168.555946
 21
42.612908
 31
0.0
  0
LINE
  5
531
330
1F
100
AcDbEntity
  8
101
  6
Continuous
 62
     7
370
    30
100
AcDbLine
 10
167.880946
 20
50.896999
 30
0.0
 11
168.61731
 21
50.406089
 31
0.0
  0
LINE
  5
532
330
1F
100
AcDbEntity
  8
101
  6
Continuous
 62
     7
370
    30
100
AcDbLine
 10
164.505946
 20
50.59018
 30
0.0
 11
167.880946
 21
50.896999
 31
0.0
  0
LINE
  5
533
330
1F
100
AcDbEntity
  8
101
  6
Continuous
 62
     7
370
    30
100
AcDbLine
 10
162.971855
 20
48.135635
 30
0.0
 11
164.505946
 21
50.59018
 31
0.0
  0
LINE
  5
534
330
1F
100
AcDbEntity
  8
101
  6
Continuous
 62
     7
370
    30
100
AcDbLine
 10
161.631589
 20
46.537665
 30
0.0
 11
162.971855
 21
48.135635
 31
0.0
  0
LINE
  5
535
330
1F
100
AcDbEntity
  8
101
  6
Continuous
 62
     7
370
    30
100
AcDbLine
 10
161.754668
 20
41.00948
 30
0.0
 11
161.631589
 21
46.537665
 31
0.0
  0
LINE
  5
536
330
1F
100
AcDbEntity
  8
101
  6
Continuous
 62
     7
370
    30
100
AcDbLine
 10
163.401401
 20
39.421999
 30
0.0
 11
161.754668
 21
41.00948
 31
0.0
  0
LINE
  5
537
330
1F
100
AcDbEntity
  8
101
  6
Continuous
 62
     7
370
    30
100
AcDbLine
 10
165.087274
 20
6.279257
 30
0.0
 11
163.401401
 21
39.421999
 31
0.0
  0
LINE
  5
538
330
1F
100
AcDbEntity
  8
101
  6
Continuous
 62
     7
370
    30
100
AcDbLine
 10
162.48493
 20
8.209085
 30
0.0
 11
161.560491
 21
49.731089
 31
0.0
  0
LINE
  5
539
330
1F
100
AcDbEntity
  8
101
  6
Continuous
 62
     7
370
    30
100
AcDbLine
 10
111.119582
 20
53.412908
 30
0.0
 11
111.965112
 21
20.248052
 31
0.0
  0
LINE
  5
53A
330
1F
100
AcDbEntity
  8
101
  6
Continuous
 62
     7
370
    30
100
AcDbLine
 10
110.137764
 20
74.767453
 30
0.0
 11
111.119582
 21
53.412908
 31
0.0
  0
LINE
  5
53B
330
1F
100
AcDbEntity
  8
101
  6
Continuous
 62
     7
370
    30
100
AcDbLine
 10
109.646855
 20
86.36518
 30
0.0
 11
110.137764
 21
74.767453
 31
0.0
  0
LINE
  5
53C
330
1F
100
AcDbEntity
  8
101
  6
Continuous
 62
     7
370
    30
100
AcDbLine
 10
109.21731
 20
94.894726
 30
0.0
 11
109.646855
 21
86.36518
 31
0.0
  0
LINE
  5
53D
330
1F
100
AcDbEntity
  8
101
  6
Continuous
 62
     7
370
    30
100
AcDbLine
 10
109.21731
 20
95.446999
 30
0.0
 11
109.21731
 21
94.894726
 31
0.0
  0
LINE
  5
53E
330
1F
100
AcDbEntity
  8
101
  6
Continuous
 62
     7
370
    30
100
AcDbLine
 10
110.260491
 20
96.551544
 30
0.0
 11
109.21731
 21
95.446999
 31
0.0
  0
LINE
  5
53F
330
1F
100
AcDbEntity
  8
101
  6
Continuous
 62
     7
370
    30
100
AcDbLine
 10
112.408219
 20
96.919726
 30
0.0
 11
110.260491
 21
96.551544
 31
0.0
  0
LINE
  5
540
330
1F
100
AcDbEntity
  8
101
  6
Continuous
 62
     7
370
    30
100
AcDbLine
 10
114.61731
 20
97.042453
 30
0.0
 11
112.408219
 21
96.919726
 31
0.0
  0
LINE
  5
541
330
1F
100
AcDbEntity
  8
101
  6
Continuous
 62
     7
370
    30
100
AcDbLine
 10
116.826401
 20
96.306089
 30
0.0
 11
114.61731
 21
97.042453
 31
0.0
  0
LINE
  5
542
330
1F
100
AcDbEntity
  8
101
  6
Continuous
 62
     7
370
    30
100
AcDbLine
 10
116.887764
 20
94.281089
 30
0.0
 11
116.826401
 21
96.306089
 31
0.0
  0
LINE
  5
543
330
1F
100
AcDbEntity
  8
101
  6
Continuous
 62
     7
370
    30
100
AcDbLine
 10
117.746855
 20
70.471999
 30
0.0
 11
116.887764
 21
94.281089
 31
0.0
  0
LINE
  5
544
330
1F
100
AcDbEntity
  8
101
  6
Continuous
 62
     7
370
    30
100
AcDbLine
 10
119.096855
 20
43.84018
 30
0.0
 11
117.746855
 21
70.471999
 31
0.0
  0
LINE
  5
545
330
1F
100
AcDbEntity
  8
101
  6
Continuous
 62
     7
370
    30
100
AcDbLine
 10
119.947125
 20
19.852903
 30
0.0
 11
119.096855
 21
43.84018
 31
0.0
  0
LINE
  5
546
330
1F
100
AcDbEntity
  8
101
  6
Continuous
 62
     7
370
    30
100
AcDbLine
 10
33.249128
 20
-6.10982
 30
0.0
 11
31.653673
 21
-8.564365
 31
0.0
  0
LINE
  5
547
330
1F
100
AcDbEntity
  8
101
  6
Continuous
 62
     7
370
    30
100
AcDbLine
 10
38.219582
 20
-0.955274
 30
0.0
 11
33.249128
 21
-6.10982
 31
0.0
  0
LINE
  5
548
330
1F
100
AcDbEntity
  8
101
  6
Continuous
 62
     7
370
    30
100
AcDbLine
 10
44.846855
 20
3.585635
 30
0.0
 11
38.219582
 21
-0.955274
 31
0.0
  0
LINE
  5
549
330
1F
100
AcDbEntity
  8
101
  6
Continuous
 62
     7
370
    30
100
AcDbLine
 10
51.965037
 20
7.206089
 30
0.0
 11
44.846855
 21
3.585635
 31
0.0
  0
LINE
  5
54A
330
1F
100
AcDbEntity
  8
101
  6
Continuous
 62
     7
370
    30
100
AcDbLine
 10
60.61731
 20
10.581089
 30
0.0
 11
51.965037
 21
7.206089
 31
0.0
  0
LINE
  5
54B
330
1F
100
AcDbEntity
  8
101
  6
Continuous
 62
     7
370
    30
100
AcDbLine
 10
66.876401
 20
12.667453
 30
0.0
 11
60.61731
 21
10.581089
 31
0.0
  0
LINE
  5
54C
330
1F
100
AcDbEntity
  8
101
  6
Continuous
 62
     7
370
    30
100
AcDbLine
 10
78.105946
 20
15.121999
 30
0.0
 11
66.876401
 21
12.667453
 31
0.0
  0
LINE
  5
54D
330
1F
100
AcDbEntity
  8
101
  6
Continuous
 62
     7
370
    30
100
AcDbLine
 10
91.115037
 20
16.962908
 30
0.0
 11
78.105946
 21
15.121999
 31
0.0
  0
LINE
  5
54E
330
1F
100
AcDbEntity
  8
101
  6
Continuous
 62
     7
370
    30
100
AcDbLine
 10
98.724128
 20
17.760635
 30
0.0
 11
91.115037
 21
16.962908
 31
0.0
  0
LINE
  5
54F
330
1F
100
AcDbEntity
  8
101
  6
Continuous
 62
     7
370
    30
100
AcDbLine
 10
112.899128
 20
17.51518
 30
0.0
 11
98.724128
 21
17.760635
 31
0.0
  0
LINE
  5
550
330
1F
100
AcDbEntity
  8
101
  6
Continuous
 62
     7
370
    30
100
AcDbLine
 10
122.594582
 20
16.778817
 30
0.0
 11
112.899128
 21
17.51518
 31
0.0
  0
LINE
  5
551
330
1F
100
AcDbEntity
  8
101
  6
Continuous
 62
     7
370
    30
100
AcDbLine
 10
133.149128
 20
15.244726
 30
0.0
 11
122.594582
 21
16.778817
 31
0.0
  0
LINE
  5
552
330
1F
100
AcDbEntity
  8
101
  6
Continuous
 62
     7
370
    30
100
AcDbLine
 10
143.335491
 20
13.035635
 30
0.0
 11
133.149128
 21
15.244726
 31
0.0
  0
LINE
  5
553
330
1F
100
AcDbEntity
  8
101
  6
Continuous
 62
     7
370
    30
100
AcDbLine
 10
151.926401
 20
10.09018
 30
0.0
 11
143.335491
 21
13.035635
 31
0.0
  0
LINE
  5
554
330
1F
100
AcDbEntity
  8
101
  6
Continuous
 62
     7
370
    30
100
AcDbLine
 10
159.535491
 20
7.021999
 30
0.0
 11
151.926401
 21
10.09018
 31
0.0
  0
LINE
  5
555
330
1F
100
AcDbEntity
  8
101
  6
Continuous
 62
     7
370
    30
100
AcDbLine
 10
166.285491
 20
2.419726
 30
0.0
 11
159.535491
 21
7.021999
 31
0.0
  0
LINE
  5
556
330
1F
100
AcDbEntity
  8
101
  6
Continuous
 62
     7
370
    30
100
AcDbLine
 10
170.703673
 20
-0.70982
 30
0.0
 11
166.285491
 21
2.419726
 31
0.0
  0
LINE
  5
557
330
1F
100
AcDbEntity
  8
101
  6
Continuous
 62
     7
370
    30
100
AcDbLine
 10
174.569582
 20
-4.943911
 30
0.0
 11
170.703673
 21
-0.70982
 31
0.0
  0
LINE
  5
558
330
1F
100
AcDbEntity
  8
101
  6
Continuous
 62
     7
370
    30
100
AcDbLine
 10
176.840037
 20
-9.48482
 30
0.0
 11
174.569582
 21
-4.943911
 31
0.0
  0
LINE
  5
559
330
1F
100
AcDbEntity
  8
101
  6
Continuous
 62
     7
370
    30
100
AcDbLine
 10
173.955946
 20
-26.543911
 30
0.0
 11
171.610234
 21
-29.011192
 31
0.0
  0
LINE
  5
55A
330
1F
100
AcDbEntity
  8
101
  6
Continuous
 62
     7
370
    30
100
AcDbLine
 10
176.165037
 20
-24.028001
 30
0.0
 11
173.955946
 21
-26.543911
 31
0.0
  0
LINE
  5
55B
330
1F
100
AcDbEntity
  8
101
  6
Continuous
 62
     7
370
    30
100
AcDbLine
 10
177.821855
 20
-21.205274
 30
0.0
 11
176.165037
 21
-24.028001
 31
0.0
  0
LINE
  5
55C
330
1F
100
AcDbEntity
  8
101
  6
Continuous
 62
     7
370
    30
100
AcDbLine
 10
178.619582
 20
-17.032547
 30
0.0
 11
177.821855
 21
-21.205274
 31
0.0
  0
LINE
  5
55D
330
1F
100
AcDbEntity
  8
101
  6
Continuous
 62
     7
370
    30
100
AcDbLine
 10
178.374128
 20
-12.982547
 30
0.0
 11
178.619582
 21
-17.032547
 31
0.0
  0
LINE
  5
55E
330
1F
100
AcDbEntity
  8
101
  6
Continuous
 62
     7
370
    30
100
AcDbLine
 10
177.515037
 20
-9.116638
 30
0.0
 11
178.374128
 21
-12.982547
 31
0.0
  0
LINE
  5
55F
330
1F
100
AcDbEntity
  8
101
  6
Continuous
 62
     7
370
    30
100
AcDbLine
 10
174.937764
 20
-2.673456
 30
0.0
 11
177.515037
 21
-9.116638
 31
0.0
  0
LINE
  5
560
330
1F
100
AcDbEntity
  8
101
  6
Continuous
 62
     7
370
    30
100
AcDbLine
 10
171.562764
 20
1.008362
 30
0.0
 11
174.937764
 21
-2.673456
 31
0.0
  0
LINE
  5
561
330
1F
100
AcDbEntity
  8
101
  6
Continuous
 62
     7
370
    30
100
AcDbLine
 10
166.899128
 20
4.935635
 30
0.0
 11
171.562764
 21
1.008362
 31
0.0
  0
LINE
  5
562
330
1F
100
AcDbEntity
  8
101
  6
Continuous
 62
     7
370
    30
100
AcDbLine
 10
161.437764
 20
8.985635
 30
0.0
 11
166.899128
 21
4.935635
 31
0.0
  0
LINE
  5
563
330
1F
100
AcDbEntity
  8
101
  6
Continuous
 62
     7
370
    30
100
AcDbLine
 10
156.099128
 20
11.44018
 30
0.0
 11
161.437764
 21
8.985635
 31
0.0
  0
LINE
  5
564
330
1F
100
AcDbEntity
  8
101
  6
Continuous
 62
     7
370
    30
100
AcDbLine
 10
149.165037
 20
14.508362
 30
0.0
 11
156.099128
 21
11.44018
 31
0.0
  0
LINE
  5
565
330
1F
100
AcDbEntity
  8
101
  6
Continuous
 62
     7
370
    30
100
AcDbLine
 10
141.065037
 20
16.778817
 30
0.0
 11
149.165037
 21
14.508362
 31
0.0
  0
LINE
  5
566
330
1F
100
AcDbEntity
  8
101
  6
Continuous
 62
     7
370
    30
100
AcDbLine
 10
131.001401
 20
18.681089
 30
0.0
 11
141.065037
 21
16.778817
 31
0.0
  0
LINE
  5
567
330
1F
100
AcDbEntity
  8
101
  6
Continuous
 62
     7
370
    30
100
AcDbLine
 10
121.305946
 20
19.785635
 30
0.0
 11
131.001401
 21
18.681089
 31
0.0
  0
LINE
  5
568
330
1F
100
AcDbEntity
  8
101
  6
Continuous
 62
     7
370
    30
100
AcDbLine
 10
108.910491
 20
20.399271
 30
0.0
 11
121.305946
 21
19.785635
 31
0.0
  0
LINE
  5
569
330
1F
100
AcDbEntity
  8
101
  6
Continuous
 62
     7
370
    30
100
AcDbLine
 10
99.460491
 20
20.031089
 30
0.0
 11
108.910491
 21
20.399271
 31
0.0
  0
LINE
  5
56A
330
1F
100
AcDbEntity
  8
101
  6
Continuous
 62
     7
370
    30
100
AcDbLine
 10
89.335491
 20
18.86518
 30
0.0
 11
99.460491
 21
20.031089
 31
0.0
  0
LINE
  5
56B
330
1F
100
AcDbEntity
  8
101
  6
Continuous
 62
     7
370
    30
100
AcDbLine
 10
80.499128
 20
17.699271
 30
0.0
 11
89.335491
 21
18.86518
 31
0.0
  0
LINE
  5
56C
330
1F
100
AcDbEntity
  8
101
  6
Continuous
 62
     7
370
    30
100
AcDbLine
 10
71.540037
 20
15.981089
 30
0.0
 11
80.499128
 21
17.699271
 31
0.0
  0
LINE
  5
56D
330
1F
100
AcDbEntity
  8
101
  6
Continuous
 62
     7
370
    30
100
AcDbLine
 10
62.274128
 20
13.403817
 30
0.0
 11
71.540037
 21
15.981089
 31
0.0
  0
LINE
  5
56E
330
1F
100
AcDbEntity
  8
101
  6
Continuous
 62
     7
370
    30
100
AcDbLine
 10
54.296855
 20
10.396999
 30
0.0
 11
62.274128
 21
13.403817
 31
0.0
  0
LINE
  5
56F
330
1F
100
AcDbEntity
  8
101
  6
Continuous
 62
     7
370
    30
100
AcDbLine
 10
47.546855
 20
7.206089
 30
0.0
 11
54.296855
 21
10.396999
 31
0.0
  0
LINE
  5
570
330
1F
100
AcDbEntity
  8
101
  6
Continuous
 62
     7
370
    30
100
AcDbLine
 10
41.778673
 20
3.953817
 30
0.0
 11
47.546855
 21
7.206089
 31
0.0
  0
LINE
  5
571
330
1F
100
AcDbEntity
  8
101
  6
Continuous
 62
     7
370
    30
100
AcDbLine
 10
38.771855
 20
1.192453
 30
0.0
 11
41.778673
 21
3.953817
 31
0.0
  0
LINE
  5
572
330
1F
100
AcDbEntity
  8
101
  6
Continuous
 62
     7
370
    30
100
AcDbLine
 10
36.624128
 20
-0.464365
 30
0.0
 11
38.771855
 21
1.192453
 31
0.0
  0
LINE
  5
573
330
1F
100
AcDbEntity
  8
101
  6
Continuous
 62
     7
370
    30
100
AcDbLine
 10
33.740037
 20
-3.40982
 30
0.0
 11
36.624128
 21
-0.464365
 31
0.0
  0
LINE
  5
574
330
1F
100
AcDbEntity
  8
101
  6
Continuous
 62
     7
370
    30
100
AcDbLine
 10
30.855946
 20
-8.871183
 30
0.0
 11
33.740037
 21
-3.40982
 31
0.0
  0
LINE
  5
575
330
1F
100
AcDbEntity
  8
101
  6
Continuous
 62
     7
370
    30
100
AcDbLine
 10
29.628673
 20
-12.307547
 30
0.0
 11
30.855946
 21
-8.871183
 31
0.0
  0
LINE
  5
576
330
1F
100
AcDbEntity
  8
101
  6
Continuous
 62
     7
370
    30
100
AcDbLine
 10
28.89231
 20
-15.928001
 30
0.0
 11
29.628673
 21
-12.307547
 31
0.0
  0
LINE
  5
577
330
1F
100
AcDbEntity
  8
101
  6
Continuous
 62
     7
370
    30
100
AcDbLine
 10
28.953673
 20
-19.978001
 30
0.0
 11
28.89231
 21
-15.928001
 31
0.0
  0
LINE
  5
578
330
1F
100
AcDbEntity
  8
101
  6
Continuous
 62
     7
370
    30
100
AcDbLine
 10
29.996855
 20
-24.150729
 30
0.0
 11
28.953673
 21
-19.978001
 31
0.0
  0
LINE
  5
579
330
1F
100
AcDbEntity
  8
101
  6
Continuous
 62
     7
370
    30
100
AcDbLine
 10
32.390424
 20
-26.813574
 30
0.0
 11
29.996855
 21
-24.150729
 31
0.0
  0
LINE
  5
57A
330
1F
100
AcDbEntity
  8
101
  6
Continuous
 62
     7
370
    30
100
AcDbLine
 10
41.533219
 20
-20.714365
 30
0.0
 11
42.287639
 21
-22.063169
 31
0.0
  0
LINE
  5
57B
330
1F
100
AcDbEntity
  8
101
  6
Continuous
 62
     7
370
    30
100
AcDbLine
 10
41.471855
 20
-19.118911
 30
0.0
 11
41.533219
 21
-20.714365
 31
0.0
  0
LINE
  5
57C
330
1F
100
AcDbEntity
  8
101
  6
Continuous
 62
     7
370
    30
100
AcDbLine
 10
42.254241
 20
-16.418911
 30
0.0
 11
41.471855
 21
-19.118911
 31
0.0
  0
LINE
  5
57D
330
1F
100
AcDbEntity
  8
101
  6
Continuous
 62
     7
370
    30
100
AcDbLine
 10
44.401969
 20
-11.571183
 30
0.0
 11
42.254241
 21
-16.418911
 31
0.0
  0
LINE
  5
57E
330
1F
100
AcDbEntity
  8
101
  6
Continuous
 62
     7
370
    30
100
AcDbLine
 10
47.347423
 20
-7.643911
 30
0.0
 11
44.401969
 21
-11.571183
 31
0.0
  0
LINE
  5
57F
330
1F
100
AcDbEntity
  8
101
  6
Continuous
 62
     7
370
    30
100
AcDbLine
 10
52.870151
 20
-3.103001
 30
0.0
 11
47.347423
 21
-7.643911
 31
0.0
  0
LINE
  5
580
330
1F
100
AcDbEntity
  8
101
  6
Continuous
 62
     7
370
    30
100
AcDbLine
 10
61.338332
 20
1.437908
 30
0.0
 11
52.870151
 21
-3.103001
 31
0.0
  0
LINE
  5
581
330
1F
100
AcDbEntity
  8
101
  6
Continuous
 62
     7
370
    30
100
AcDbLine
 10
74.101969
 20
5.242453
 30
0.0
 11
61.338332
 21
1.437908
 31
0.0
  0
LINE
  5
582
330
1F
100
AcDbEntity
  8
101
  6
Continuous
 62
     7
370
    30
100
AcDbLine
 10
83.920151
 20
7.328817
 30
0.0
 11
74.101969
 21
5.242453
 31
0.0
  0
LINE
  5
583
330
1F
100
AcDbEntity
  8
101
  6
Continuous
 62
     7
370
    30
100
AcDbLine
 10
89.442878
 20
8.310635
 30
0.0
 11
83.920151
 21
7.328817
 31
0.0
  0
LINE
  5
584
330
1F
100
AcDbEntity
  8
101
  6
Continuous
 62
     7
370
    30
100
AcDbLine
 10
96.683787
 20
9.046999
 30
0.0
 11
89.442878
 21
8.310635
 31
0.0
  0
LINE
  5
585
330
1F
100
AcDbEntity
  8
101
  6
Continuous
 62
     7
370
    30
100
AcDbLine
 10
103.801969
 20
9.169726
 30
0.0
 11
96.683787
 21
9.046999
 31
0.0
  0
LINE
  5
586
330
1F
100
AcDbEntity
  8
101
  6
Continuous
 62
     7
370
    30
100
AcDbLine
 10
112.149862
 20
9.300745
 30
0.0
 11
103.801969
 21
9.169726
 31
0.0
  0
LINE
  5
587
330
1F
100
AcDbEntity
  8
101
  6
Continuous
 62
     7
370
    30
100
AcDbLine
 10
129.574696
 20
7.451544
 30
0.0
 11
120.247423
 21
8.556089
 31
0.0
  0
LINE
  5
588
330
1F
100
AcDbEntity
  8
101
  6
Continuous
 62
     7
370
    30
100
AcDbLine
 10
136.570151
 20
6.224271
 30
0.0
 11
129.574696
 21
7.451544
 31
0.0
  0
LINE
  5
589
330
1F
100
AcDbEntity
  8
101
  6
Continuous
 62
     7
370
    30
100
AcDbLine
 10
145.038332
 20
3.769726
 30
0.0
 11
136.570151
 21
6.224271
 31
0.0
  0
LINE
  5
58A
330
1F
100
AcDbEntity
  8
101
  6
Continuous
 62
     7
370
    30
100
AcDbLine
 10
153.015605
 20
-0.157547
 30
0.0
 11
145.038332
 21
3.769726
 31
0.0
  0
LINE
  5
58B
330
1F
100
AcDbEntity
  8
101
  6
Continuous
 62
     7
370
    30
100
AcDbLine
 10
159.765605
 20
-4.575729
 30
0.0
 11
153.015605
 21
-0.157547
 31
0.0
  0
LINE
  5
58C
330
1F
100
AcDbEntity
  8
101
  6
Continuous
 62
     7
370
    30
100
AcDbLine
 10
163.999696
 20
-10.15982
 30
0.0
 11
159.765605
 21
-4.575729
 31
0.0
  0
LINE
  5
58D
330
1F
100
AcDbEntity
  8
101
  6
Continuous
 62
     7
370
    30
100
AcDbLine
 10
166.024696
 20
-13.780274
 30
0.0
 11
163.999696
 21
-10.15982
 31
0.0
  0
LINE
  5
58E
330
1F
100
AcDbEntity
  8
101
  6
Continuous
 62
     7
370
    30
100
AcDbLine
 10
166.147423
 20
-18.566638
 30
0.0
 11
166.024696
 21
-13.780274
 31
0.0
  0
LINE
  5
58F
330
1F
100
AcDbEntity
  8
101
  6
Continuous
 62
     7
370
    30
100
AcDbLine
 10
164.530012
 20
-22.984278
 30
0.0
 11
166.147423
 21
-18.566638
 31
0.0
  0
LINE
  5
590
330
1F
100
AcDbEntity
  8
101
  6
Continuous
 62
     7
370
    30
100
AcDbLine
 10
102.881514
 20
-102.941638
 30
0.0
 11
101.592878
 21
-104.107547
 31
0.0
  0
LINE
  5
591
330
1F
100
AcDbEntity
  8
101
  6
Continuous
 62
     7
370
    30
100
AcDbLine
 10
104.047423
 20
-101.530274
 30
0.0
 11
102.881514
 21
-102.941638
 31
0.0
  0
LINE
  5
592
330
1F
100
AcDbEntity
  8
101
  6
Continuous
 62
     7
370
    30
100
AcDbLine
 10
105.458787
 20
-97.603001
 30
0.0
 11
104.047423
 21
-101.530274
 31
0.0
  0
LINE
  5
593
330
1F
100
AcDbEntity
  8
101
  6
Continuous
 62
     7
370
    30
100
AcDbLine
 10
106.317878
 20
-94.412092
 30
0.0
 11
105.458787
 21
-97.603001
 31
0.0
  0
LINE
  5
594
330
1F
100
AcDbEntity
  8
101
  6
Continuous
 62
     7
370
    30
100
AcDbLine
 10
107.238332
 20
-89.318911
 30
0.0
 11
106.317878
 21
-94.412092
 31
0.0
  0
LINE
  5
595
330
1F
100
AcDbEntity
  8
101
  6
Continuous
 62
     7
370
    30
100
AcDbLine
 10
108.588332
 20
-82.200729
 30
0.0
 11
107.238332
 21
-89.318911
 31
0.0
  0
LINE
  5
596
330
1F
100
AcDbEntity
  8
101
  6
Continuous
 62
     7
370
    30
100
AcDbLine
 10
109.447423
 20
-76.125729
 30
0.0
 11
108.588332
 21
-82.200729
 31
0.0
  0
LINE
  5
597
330
1F
100
AcDbEntity
  8
101
  6
Continuous
 62
     7
370
    30
100
AcDbLine
 10
110.306514
 20
-69.55982
 30
0.0
 11
109.447423
 21
-76.125729
 31
0.0
  0
LINE
  5
598
330
1F
100
AcDbEntity
  8
101
  6
Continuous
 62
     7
370
    30
100
AcDbLine
 10
111.104241
 20
-62.564365
 30
0.0
 11
110.306514
 21
-69.55982
 31
0.0
  0
LINE
  5
599
330
1F
100
AcDbEntity
  8
101
  6
Continuous
 62
     7
370
    30
100
AcDbLine
 10
111.840605
 20
-52.500729
 30
0.0
 11
111.104241
 21
-62.564365
 31
0.0
  0
LINE
  5
59A
330
1F
100
AcDbEntity
  8
101
  6
Continuous
 62
     7
370
    30
100
AcDbLine
 10
112.331514
 20
-45.996183
 30
0.0
 11
111.840605
 21
-52.500729
 31
0.0
  0
LINE
  5
59B
330
1F
100
AcDbEntity
  8
101
  6
Continuous
 62
     7
370
    30
100
AcDbLine
 10
112.576969
 20
-36.178001
 30
0.0
 11
112.331514
 21
-45.996183
 31
0.0
  0
LINE
  5
59C
330
1F
100
AcDbEntity
  8
101
  6
Continuous
 62
     7
370
    30
100
AcDbLine
 10
112.76106
 20
-24.641638
 30
0.0
 11
112.576969
 21
-36.178001
 31
0.0
  0
LINE
  5
59D
330
1F
100
AcDbEntity
  8
101
  6
Continuous
 62
     7
370
    30
100
AcDbLine
 10
112.392878
 20
-15.375729
 30
0.0
 11
112.76106
 21
-24.641638
 31
0.0
  0
LINE
  5
59E
330
1F
100
AcDbEntity
  8
101
  6
Continuous
 62
     7
370
    30
100
AcDbLine
 10
112.331514
 20
-1.507547
 30
0.0
 11
112.392878
 21
-15.375729
 31
0.0
  0
LINE
  5
59F
330
1F
100
AcDbEntity
  8
101
  6
Continuous
 62
     7
370
    30
100
AcDbLine
 10
112.08606
 20
13.096999
 30
0.0
 11
112.331514
 21
-1.507547
 31
0.0
  0
LINE
  5
5A0
330
1F
100
AcDbEntity
  8
101
  6
Continuous
 62
     7
370
    30
100
AcDbLine
 10
112.576969
 20
13.771999
 30
0.0
 11
112.08606
 21
13.096999
 31
0.0
  0
LINE
  5
5A1
330
1F
100
AcDbEntity
  8
101
  6
Continuous
 62
     7
370
    30
100
AcDbLine
 10
113.926969
 20
14.262908
 30
0.0
 11
112.576969
 21
13.771999
 31
0.0
  0
LINE
  5
5A2
330
1F
100
AcDbEntity
  8
101
  6
Continuous
 62
     7
370
    30
100
AcDbLine
 10
115.706514
 20
14.569726
 30
0.0
 11
113.926969
 21
14.262908
 31
0.0
  0
LINE
  5
5A3
330
1F
100
AcDbEntity
  8
101
  6
Continuous
 62
     7
370
    30
100
AcDbLine
 10
116.872423
 20
14.569726
 30
0.0
 11
115.706514
 21
14.569726
 31
0.0
  0
LINE
  5
5A4
330
1F
100
AcDbEntity
  8
101
  6
Continuous
 62
     7
370
    30
100
AcDbLine
 10
117.854241
 20
14.446999
 30
0.0
 11
116.872423
 21
14.569726
 31
0.0
  0
LINE
  5
5A5
330
1F
100
AcDbEntity
  8
101
  6
Continuous
 62
     7
370
    30
100
AcDbLine
 10
119.633787
 20
13.587908
 30
0.0
 11
117.854241
 21
14.446999
 31
0.0
  0
LINE
  5
5A6
330
1F
100
AcDbEntity
  8
101
  6
Continuous
 62
     7
370
    30
100
AcDbLine
 10
120.124696
 20
12.360635
 30
0.0
 11
119.633787
 21
13.587908
 31
0.0
  0
LINE
  5
5A7
330
1F
100
AcDbEntity
  8
101
  6
Continuous
 62
     7
370
    30
100
AcDbLine
 10
120.247423
 20
9.660635
 30
0.0
 11
120.124696
 21
12.360635
 31
0.0
  0
LINE
  5
5A8
330
1F
100
AcDbEntity
  8
101
  6
Continuous
 62
     7
370
    30
100
AcDbLine
 10
120.247423
 20
-0.157547
 30
0.0
 11
120.247423
 21
9.660635
 31
0.0
  0
LINE
  5
5A9
330
1F
100
AcDbEntity
  8
101
  6
Continuous
 62
     7
370
    30
100
AcDbLine
 10
120.370151
 20
-15.191638
 30
0.0
 11
120.247423
 21
-0.157547
 31
0.0
  0
LINE
  5
5AA
330
1F
100
AcDbEntity
  8
101
  6
Continuous
 62
     7
370
    30
100
AcDbLine
 10
120.308787
 20
-28.691638
 30
0.0
 11
120.370151
 21
-15.191638
 31
0.0
  0
LINE
  5
5AB
330
1F
100
AcDbEntity
  8
101
  6
Continuous
 62
     7
370
    30
100
AcDbLine
 10
119.817878
 20
-44.58482
 30
0.0
 11
120.308787
 21
-28.691638
 31
0.0
  0
LINE
  5
5AC
330
1F
100
AcDbEntity
  8
101
  6
Continuous
 62
     7
370
    30
100
AcDbLine
 10
119.204241
 20
-53.543911
 30
0.0
 11
119.817878
 21
-44.58482
 31
0.0
  0
LINE
  5
5AD
330
1F
100
AcDbEntity
  8
101
  6
Continuous
 62
     7
370
    30
100
AcDbLine
 10
117.976969
 20
-63.300729
 30
0.0
 11
119.204241
 21
-53.543911
 31
0.0
  0
LINE
  5
5AE
330
1F
100
AcDbEntity
  8
101
  6
Continuous
 62
     7
370
    30
100
AcDbLine
 10
117.301969
 20
-71.339365
 30
0.0
 11
117.976969
 21
-63.300729
 31
0.0
  0
LINE
  5
5AF
330
1F
100
AcDbEntity
  8
101
  6
Continuous
 62
     7
370
    30
100
AcDbLine
 10
115.951969
 20
-79.500729
 30
0.0
 11
117.301969
 21
-71.339365
 31
0.0
  0
LINE
  5
5B0
330
1F
100
AcDbEntity
  8
101
  6
Continuous
 62
     7
370
    30
100
AcDbLine
 10
114.295151
 20
-88.091638
 30
0.0
 11
115.951969
 21
-79.500729
 31
0.0
  0
LINE
  5
5B1
330
1F
100
AcDbEntity
  8
101
  6
Continuous
 62
     7
370
    30
100
AcDbLine
 10
111.840605
 20
-95.393911
 30
0.0
 11
114.295151
 21
-88.091638
 31
0.0
  0
LINE
  5
5B2
330
1F
100
AcDbEntity
  8
101
  6
Continuous
 62
     7
370
    30
100
AcDbLine
 10
110.797423
 20
-99.505274
 30
0.0
 11
111.840605
 21
-95.393911
 31
0.0
  0
LINE
  5
5B3
330
1F
100
AcDbEntity
  8
101
  6
Continuous
 62
     7
370
    30
100
AcDbLine
 10
109.754241
 20
-102.941638
 30
0.0
 11
110.797423
 21
-99.505274
 31
0.0
  0
LINE
  5
5B4
330
1F
100
AcDbEntity
  8
101
  6
Continuous
 62
     7
370
    30
100
AcDbLine
 10
108.342878
 20
-105.580274
 30
0.0
 11
109.754241
 21
-102.941638
 31
0.0
  0
LINE
  5
5B5
330
1F
100
AcDbEntity
  8
101
  6
Continuous
 62
     7
370
    30
100
AcDbLine
 10
106.440605
 20
-107.605274
 30
0.0
 11
108.342878
 21
-105.580274
 31
0.0
  0
LINE
  5
5B6
330
1F
100
AcDbEntity
  8
101
  6
Continuous
 62
     7
370
    30
100
AcDbLine
 10
104.722423
 20
-109.139365
 30
0.0
 11
106.440605
 21
-107.605274
 31
0.0
  0
LINE
  5
5B7
330
1F
100
AcDbEntity
  8
101
  6
Continuous
 62
     7
370
    30
100
AcDbLine
 10
102.63606
 20
-110.073456
 30
0.0
 11
104.722423
 21
-109.139365
 31
0.0
  0
LINE
  5
5B8
330
1F
100
AcDbEntity
  8
101
  6
Continuous
 62
     7
370
    30
100
AcDbLine
 10
100.426969
 20
-110.073456
 30
0.0
 11
102.63606
 21
-110.073456
 31
0.0
  0
LINE
  5
5B9
330
1F
100
AcDbEntity
  8
101
  6
Continuous
 62
     7
370
    30
100
AcDbLine
 10
99.199696
 20
-108.955274
 30
0.0
 11
100.426969
 21
-110.073456
 31
0.0
  0
LINE
  5
5BA
330
1F
100
AcDbEntity
  8
101
  6
Continuous
 62
     7
370
    30
100
AcDbLine
 10
97.665605
 20
-107.482547
 30
0.0
 11
99.199696
 21
-108.955274
 31
0.0
  0
LINE
  5
5BB
330
1F
100
AcDbEntity
  8
101
  6
Continuous
 62
     7
370
    30
100
AcDbLine
 10
96.376969
 20
-106.255274
 30
0.0
 11
97.665605
 21
-107.482547
 31
0.0
  0
LINE
  5
5BC
330
1F
100
AcDbEntity
  8
101
  6
Continuous
 62
     7
370
    30
100
AcDbLine
 10
96.038805
 20
-104.584027
 30
0.0
 11
96.376969
 21
-106.255274
 31
0.0
  0
LINE
  5
5BD
330
1F
100
AcDbEntity
  8
101
  6
Continuous
 62
     7
370
    30
100
AcDbLine
 10
100.61106
 20
-104.65982
 30
0.0
 11
101.592878
 21
-104.107547
 31
0.0
  0
LINE
  5
5BE
330
1F
100
AcDbEntity
  8
101
  6
Continuous
 62
     7
370
    30
100
AcDbLine
 10
99.445151
 20
-104.046183
 30
0.0
 11
100.61106
 21
-104.65982
 31
0.0
  0
LINE
  5
5BF
330
1F
100
AcDbEntity
  8
101
  6
Continuous
 62
     7
370
    30
100
AcDbLine
 10
42.376969
 20
-37.15982
 30
0.0
 11
39.080066
 21
-34.214555
 31
0.0
  0
LINE
  5
5C0
330
1F
100
AcDbEntity
  8
101
  6
Continuous
 62
     7
370
    30
100
AcDbLine
 10
42.376969
 20
-37.15982
 30
0.0
 11
42.254241
 21
-16.418911
 31
0.0
  0
LINE
  5
5C1
330
1F
100
AcDbEntity
  8
101
  6
Continuous
 62
     7
370
    30
100
AcDbLine
 10
42.745151
 20
-44.768911
 30
0.0
 11
42.376969
 21
-37.15982
 31
0.0
  0
LINE
  5
5C2
330
1F
100
AcDbEntity
  8
101
  6
Continuous
 62
     7
370
    30
100
AcDbLine
 10
44.340605
 20
-52.132547
 30
0.0
 11
42.745151
 21
-44.768911
 31
0.0
  0
LINE
  5
5C3
330
1F
100
AcDbEntity
  8
101
  6
Continuous
 62
     7
370
    30
100
AcDbLine
 10
48.513332
 20
-62.441638
 30
0.0
 11
44.340605
 21
-52.132547
 31
0.0
  0
LINE
  5
5C4
330
1F
100
AcDbEntity
  8
101
  6
Continuous
 62
     7
370
    30
100
AcDbLine
 10
50.845151
 20
-67.350729
 30
0.0
 11
48.513332
 21
-62.441638
 31
0.0
  0
LINE
  5
5C5
330
1F
100
AcDbEntity
  8
101
  6
Continuous
 62
     7
370
    30
100
AcDbLine
 10
53.422423
 20
-71.155274
 30
0.0
 11
50.845151
 21
-67.350729
 31
0.0
  0
LINE
  5
5C6
330
1F
100
AcDbEntity
  8
101
  6
Continuous
 62
     7
370
    30
100
AcDbLine
 10
56.981514
 20
-75.818911
 30
0.0
 11
53.422423
 21
-71.155274
 31
0.0
  0
LINE
  5
5C7
330
1F
100
AcDbEntity
  8
101
  6
Continuous
 62
     7
370
    30
100
AcDbLine
 10
60.908787
 20
-79.991638
 30
0.0
 11
56.981514
 21
-75.818911
 31
0.0
  0
LINE
  5
5C8
330
1F
100
AcDbEntity
  8
101
  6
Continuous
 62
     7
370
    30
100
AcDbLine
 10
65.695151
 20
-84.40982
 30
0.0
 11
60.908787
 21
-79.991638
 31
0.0
  0
LINE
  5
5C9
330
1F
100
AcDbEntity
  8
101
  6
Continuous
 62
     7
370
    30
100
AcDbLine
 10
71.954241
 20
-88.705274
 30
0.0
 11
65.695151
 21
-84.40982
 31
0.0
  0
LINE
  5
5CA
330
1F
100
AcDbEntity
  8
101
  6
Continuous
 62
     7
370
    30
100
AcDbLine
 10
78.826969
 20
-91.896183
 30
0.0
 11
71.954241
 21
-88.705274
 31
0.0
  0
LINE
  5
5CB
330
1F
100
AcDbEntity
  8
101
  6
Continuous
 62
     7
370
    30
100
AcDbLine
 10
85.08606
 20
-94.473456
 30
0.0
 11
78.826969
 21
-91.896183
 31
0.0
  0
LINE
  5
5CC
330
1F
100
AcDbEntity
  8
101
  6
Continuous
 62
     7
370
    30
100
AcDbLine
 10
93.18606
 20
-96.191638
 30
0.0
 11
85.08606
 21
-94.473456
 31
0.0
  0
LINE
  5
5CD
330
1F
100
AcDbEntity
  8
101
  6
Continuous
 62
     7
370
    30
100
AcDbLine
 10
99.076969
 20
-96.437092
 30
0.0
 11
93.18606
 21
-96.191638
 31
0.0
  0
LINE
  5
5CE
330
1F
100
AcDbEntity
  8
101
  6
Continuous
 62
     7
370
    30
100
AcDbLine
 10
105.213332
 20
-96.068911
 30
0.0
 11
99.076969
 21
-96.437092
 31
0.0
  0
LINE
  5
5CF
330
1F
100
AcDbEntity
  8
101
  6
Continuous
 62
     7
370
    30
100
AcDbLine
 10
94.658787
 20
-99.014365
 30
0.0
 11
94.53606
 21
-96.068911
 31
0.0
  0
LINE
  5
5D0
330
1F
100
AcDbEntity
  8
101
  6
Continuous
 62
     7
370
    30
100
AcDbLine
 10
102.022423
 20
-97.050729
 30
0.0
 11
105.213332
 21
-96.068911
 31
0.0
  0
LINE
  5
5D1
330
1F
100
AcDbEntity
  8
101
  6
Continuous
 62
     7
370
    30
100
AcDbLine
 10
97.972423
 20
-98.523456
 30
0.0
 11
102.022423
 21
-97.050729
 31
0.0
  0
LINE
  5
5D2
330
1F
100
AcDbEntity
  8
101
  6
Continuous
 62
     7
370
    30
100
AcDbLine
 10
94.658787
 20
-99.014365
 30
0.0
 11
97.972423
 21
-98.523456
 31
0.0
  0
LINE
  5
5D3
330
1F
100
AcDbEntity
  8
101
  6
Continuous
 62
     7
370
    30
100
AcDbLine
 10
89.626969
 20
-98.646183
 30
0.0
 11
94.658787
 21
-99.014365
 31
0.0
  0
LINE
  5
5D4
330
1F
100
AcDbEntity
  8
101
  6
Continuous
 62
     7
370
    30
100
AcDbLine
 10
83.367878
 20
-96.437092
 30
0.0
 11
89.626969
 21
-98.646183
 31
0.0
  0
LINE
  5
5D5
330
1F
100
AcDbEntity
  8
101
  6
Continuous
 62
     7
370
    30
100
AcDbLine
 10
75.513332
 20
-93.368911
 30
0.0
 11
83.367878
 21
-96.437092
 31
0.0
  0
LINE
  5
5D6
330
1F
100
AcDbEntity
  8
101
  6
Continuous
 62
     7
370
    30
100
AcDbLine
 10
66.554241
 20
-88.091638
 30
0.0
 11
75.513332
 21
-93.368911
 31
0.0
  0
LINE
  5
5D7
330
1F
100
AcDbEntity
  8
101
  6
Continuous
 62
     7
370
    30
100
AcDbLine
 10
59.43606
 20
-82.323456
 30
0.0
 11
66.554241
 21
-88.091638
 31
0.0
  0
LINE
  5
5D8
330
1F
100
AcDbEntity
  8
101
  6
Continuous
 62
     7
370
    30
100
AcDbLine
 10
54.03606
 20
-76.800729
 30
0.0
 11
59.43606
 21
-82.323456
 31
0.0
  0
LINE
  5
5D9
330
1F
100
AcDbEntity
  8
101
  6
Continuous
 62
     7
370
    30
100
AcDbLine
 10
48.758787
 20
-70.050729
 30
0.0
 11
54.03606
 21
-76.800729
 31
0.0
  0
LINE
  5
5DA
330
1F
100
AcDbEntity
  8
101
  6
Continuous
 62
     7
370
    30
100
AcDbLine
 10
45.690605
 20
-64.405274
 30
0.0
 11
48.758787
 21
-70.050729
 31
0.0
  0
LINE
  5
5DB
330
1F
100
AcDbEntity
  8
101
  6
Continuous
 62
     7
370
    30
100
AcDbLine
 10
42.622423
 20
-58.023456
 30
0.0
 11
45.690605
 21
-64.405274
 31
0.0
  0
LINE
  5
5DC
330
1F
100
AcDbEntity
  8
101
  6
Continuous
 62
     7
370
    30
100
AcDbLine
 10
40.413332
 20
-51.396183
 30
0.0
 11
42.622423
 21
-58.023456
 31
0.0
  0
LINE
  5
5DD
330
1F
100
AcDbEntity
  8
101
  6
Continuous
 62
     7
370
    30
100
AcDbLine
 10
39.18606
 20
-44.155274
 30
0.0
 11
40.413332
 21
-51.396183
 31
0.0
  0
LINE
  5
5DE
330
1F
100
AcDbEntity
  8
101
  6
Continuous
 62
     7
370
    30
100
AcDbLine
 10
39.063332
 20
-35.687092
 30
0.0
 11
39.18606
 21
-44.155274
 31
0.0
  0
LINE
  5
5DF
330
1F
100
AcDbEntity
  8
101
  6
Continuous
 62
     7
370
    30
100
AcDbLine
 10
39.18606
 20
-24.887092
 30
0.0
 11
39.063332
 21
-35.687092
 31
0.0
  0
LINE
  5
5E0
330
1F
100
AcDbEntity
  8
101
  6
Continuous
 62
     7
370
    30
100
AcDbLine
 10
40.413332
 20
-24.518911
 30
0.0
 11
39.18606
 21
-24.887092
 31
0.0
  0
LINE
  5
5E1
330
1F
100
AcDbEntity
  8
101
  6
Continuous
 62
     7
370
    30
100
AcDbLine
 10
40.53606
 20
-21.328001
 30
0.0
 11
40.413332
 21
-24.518911
 31
0.0
  0
LINE
  5
5E2
330
1F
100
AcDbEntity
  8
101
  6
Continuous
 62
     7
370
    30
100
AcDbLine
 10
39.431514
 20
-18.996183
 30
0.0
 11
40.53606
 21
-21.328001
 31
0.0
  0
LINE
  5
5E3
330
1F
100
AcDbEntity
  8
101
  6
Continuous
 62
     7
370
    30
100
AcDbLine
 10
39.431514
 20
-17.032547
 30
0.0
 11
39.431514
 21
-18.996183
 31
0.0
  0
LINE
  5
5E4
330
1F
100
AcDbEntity
  8
101
  6
Continuous
 62
     7
370
    30
100
AcDbLine
 10
36.854241
 20
-16.787092
 30
0.0
 11
39.431514
 21
-17.032547
 31
0.0
  0
LINE
  5
5E5
330
1F
100
AcDbEntity
  8
101
  6
Continuous
 62
     7
370
    30
100
AcDbLine
 10
33.78606
 20
-17.155274
 30
0.0
 11
36.854241
 21
-16.787092
 31
0.0
  0
LINE
  5
5E6
330
1F
100
AcDbEntity
  8
101
  6
Continuous
 62
     7
370
    30
100
AcDbLine
 10
31.576969
 20
-17.400729
 30
0.0
 11
33.78606
 21
-17.155274
 31
0.0
  0
LINE
  5
5E7
330
1F
100
AcDbEntity
  8
101
  6
Continuous
 62
     7
370
    30
100
AcDbLine
 10
32.43606
 20
-27.341638
 30
0.0
 11
31.576969
 21
-17.400729
 31
0.0
  0
LINE
  5
5E8
330
1F
100
AcDbEntity
  8
101
  6
Continuous
 62
     7
370
    30
100
AcDbLine
 10
32.926969
 20
-37.405274
 30
0.0
 11
32.43606
 21
-27.341638
 31
0.0
  0
LINE
  5
5E9
330
1F
100
AcDbEntity
  8
101
  6
Continuous
 62
     7
370
    30
100
AcDbLine
 10
33.417878
 20
-44.400729
 30
0.0
 11
32.926969
 21
-37.405274
 31
0.0
  0
LINE
  5
5EA
330
1F
100
AcDbEntity
  8
101
  6
Continuous
 62
     7
370
    30
100
AcDbLine
 10
34.522423
 20
-51.396183
 30
0.0
 11
33.417878
 21
-44.400729
 31
0.0
  0
LINE
  5
5EB
330
1F
100
AcDbEntity
  8
101
  6
Continuous
 62
     7
370
    30
100
AcDbLine
 10
36.854241
 20
-59.250729
 30
0.0
 11
34.522423
 21
-51.396183
 31
0.0
  0
LINE
  5
5EC
330
1F
100
AcDbEntity
  8
101
  6
Continuous
 62
     7
370
    30
100
AcDbLine
 10
39.554241
 20
-65.387092
 30
0.0
 11
36.854241
 21
-59.250729
 31
0.0
  0
LINE
  5
5ED
330
1F
100
AcDbEntity
  8
101
  6
Continuous
 62
     7
370
    30
100
AcDbLine
 10
42.745151
 20
-71.155274
 30
0.0
 11
39.554241
 21
-65.387092
 31
0.0
  0
LINE
  5
5EE
330
1F
100
AcDbEntity
  8
101
  6
Continuous
 62
     7
370
    30
100
AcDbLine
 10
45.813332
 20
-75.573456
 30
0.0
 11
42.745151
 21
-71.155274
 31
0.0
  0
LINE
  5
5EF
330
1F
100
AcDbEntity
  8
101
  6
Continuous
 62
     7
370
    30
100
AcDbLine
 10
49.495151
 20
-80.35982
 30
0.0
 11
45.813332
 21
-75.573456
 31
0.0
  0
LINE
  5
5F0
330
1F
100
AcDbEntity
  8
101
  6
Continuous
 62
     7
370
    30
100
AcDbLine
 10
56.613332
 20
-87.232547
 30
0.0
 11
49.495151
 21
-80.35982
 31
0.0
  0
LINE
  5
5F1
330
1F
100
AcDbEntity
  8
101
  6
Continuous
 62
     7
370
    30
100
AcDbLine
 10
61.522423
 20
-91.15982
 30
0.0
 11
56.613332
 21
-87.232547
 31
0.0
  0
LINE
  5
5F2
330
1F
100
AcDbEntity
  8
101
  6
Continuous
 62
     7
370
    30
100
AcDbLine
 10
68.88606
 20
-96.068911
 30
0.0
 11
61.522423
 21
-91.15982
 31
0.0
  0
LINE
  5
5F3
330
1F
100
AcDbEntity
  8
101
  6
Continuous
 62
     7
370
    30
100
AcDbLine
 10
77.354241
 20
-100.118911
 30
0.0
 11
68.88606
 21
-96.068911
 31
0.0
  0
LINE
  5
5F4
330
1F
100
AcDbEntity
  8
101
  6
Continuous
 62
     7
370
    30
100
AcDbLine
 10
82.508787
 20
-102.450729
 30
0.0
 11
77.354241
 21
-100.118911
 31
0.0
  0
LINE
  5
5F5
330
1F
100
AcDbEntity
  8
101
  6
Continuous
 62
     7
370
    30
100
AcDbLine
 10
88.399696
 20
-104.168911
 30
0.0
 11
82.508787
 21
-102.450729
 31
0.0
  0
LINE
  5
5F6
330
1F
100
AcDbEntity
  8
101
  6
Continuous
 62
     7
370
    30
100
AcDbLine
 10
94.781514
 20
-104.782547
 30
0.0
 11
88.399696
 21
-104.168911
 31
0.0
  0
LINE
  5
5F7
330
1F
100
AcDbEntity
  8
101
  6
Continuous
 62
     7
370
    30
100
AcDbLine
 10
99.445151
 20
-104.046183
 30
0.0
 11
94.781514
 21
-104.782547
 31
0.0
  0
LINE
  5
5F8
330
1F
100
AcDbEntity
  8
101
  6
Continuous
 62
     7
370
    30
100
AcDbLine
 10
102.881514
 20
-102.941638
 30
0.0
 11
99.445151
 21
-104.046183
 31
0.0
  0
LINE
  5
5F9
330
1F
100
AcDbEntity
  8
101
  6
Continuous
 62
     7
370
    30
100
AcDbLine
 10
164.245151
 20
-13.105274
 30
0.0
 11
163.999696
 21
-10.15982
 31
0.0
  0
LINE
  5
5FA
330
1F
100
AcDbEntity
  8
101
  6
Continuous
 62
     7
370
    30
100
AcDbLine
 10
164.613332
 20
-19.60982
 30
0.0
 11
164.245151
 21
-13.105274
 31
0.0
  0
LINE
  5
5FB
330
1F
100
AcDbEntity
  8
101
  6
Continuous
 62
     7
370
    30
100
AcDbLine
 10
164.367878
 20
-29.550729
 30
0.0
 11
164.613332
 21
-19.60982
 31
0.0
  0
LINE
  5
5FC
330
1F
100
AcDbEntity
  8
101
  6
Continuous
 62
     7
370
    30
100
AcDbLine
 10
163.876969
 20
-35.564365
 30
0.0
 11
164.367878
 21
-29.550729
 31
0.0
  0
LINE
  5
5FD
330
1F
100
AcDbEntity
  8
101
  6
Continuous
 62
     7
370
    30
100
AcDbLine
 10
162.772423
 20
-41.700729
 30
0.0
 11
163.876969
 21
-35.564365
 31
0.0
  0
LINE
  5
5FE
330
1F
100
AcDbEntity
  8
101
  6
Continuous
 62
     7
370
    30
100
AcDbLine
 10
161.299696
 20
-50.168911
 30
0.0
 11
162.772423
 21
-41.700729
 31
0.0
  0
LINE
  5
5FF
330
1F
100
AcDbEntity
  8
101
  6
Continuous
 62
     7
370
    30
100
AcDbLine
 10
159.458787
 20
-55.691638
 30
0.0
 11
161.299696
 21
-50.168911
 31
0.0
  0
LINE
  5
600
330
1F
100
AcDbEntity
  8
101
  6
Continuous
 62
     7
370
    30
100
AcDbLine
 10
157.372423
 20
-61.582547
 30
0.0
 11
159.458787
 21
-55.691638
 31
0.0
  0
LINE
  5
601
330
1F
100
AcDbEntity
  8
101
  6
Continuous
 62
     7
370
    30
100
AcDbLine
 10
155.163332
 20
-65.878001
 30
0.0
 11
157.372423
 21
-61.582547
 31
0.0
  0
LINE
  5
602
330
1F
100
AcDbEntity
  8
101
  6
Continuous
 62
     7
370
    30
100
AcDbLine
 10
150.499696
 20
-72.628001
 30
0.0
 11
155.163332
 21
-65.878001
 31
0.0
  0
LINE
  5
603
330
1F
100
AcDbEntity
  8
101
  6
Continuous
 62
     7
370
    30
100
AcDbLine
 10
145.222423
 20
-78.518911
 30
0.0
 11
150.499696
 21
-72.628001
 31
0.0
  0
LINE
  5
604
330
1F
100
AcDbEntity
  8
101
  6
Continuous
 62
     7
370
    30
100
AcDbLine
 10
138.840605
 20
-84.40982
 30
0.0
 11
145.222423
 21
-78.518911
 31
0.0
  0
LINE
  5
605
330
1F
100
AcDbEntity
  8
101
  6
Continuous
 62
     7
370
    30
100
AcDbLine
 10
132.581514
 20
-88.45982
 30
0.0
 11
138.840605
 21
-84.40982
 31
0.0
  0
LINE
  5
606
330
1F
100
AcDbEntity
  8
101
  6
Continuous
 62
     7
370
    30
100
AcDbLine
 10
126.322423
 20
-91.896183
 30
0.0
 11
132.581514
 21
-88.45982
 31
0.0
  0
LINE
  5
607
330
1F
100
AcDbEntity
  8
101
  6
Continuous
 62
     7
370
    30
100
AcDbLine
 10
118.713332
 20
-94.228001
 30
0.0
 11
126.322423
 21
-91.896183
 31
0.0
  0
LINE
  5
608
330
1F
100
AcDbEntity
  8
101
  6
Continuous
 62
     7
370
    30
100
AcDbLine
 10
112.699696
 20
-95.700729
 30
0.0
 11
118.713332
 21
-94.228001
 31
0.0
  0
LINE
  5
609
330
1F
100
AcDbEntity
  8
101
  6
Continuous
 62
     7
370
    30
100
AcDbLine
 10
115.031514
 20
-99.137092
 30
0.0
 11
111.963332
 21
-98.400729
 31
0.0
  0
LINE
  5
60A
330
1F
100
AcDbEntity
  8
101
  6
Continuous
 62
     7
370
    30
100
AcDbLine
 10
118.713332
 20
-99.505274
 30
0.0
 11
115.031514
 21
-99.137092
 31
0.0
  0
LINE
  5
60B
330
1F
100
AcDbEntity
  8
101
  6
Continuous
 62
     7
370
    30
100
AcDbLine
 10
124.113332
 20
-97.90982
 30
0.0
 11
118.713332
 21
-99.505274
 31
0.0
  0
LINE
  5
60C
330
1F
100
AcDbEntity
  8
101
  6
Continuous
 62
     7
370
    30
100
AcDbLine
 10
130.004241
 20
-95.578001
 30
0.0
 11
124.113332
 21
-97.90982
 31
0.0
  0
LINE
  5
60D
330
1F
100
AcDbEntity
  8
101
  6
Continuous
 62
     7
370
    30
100
AcDbLine
 10
135.649696
 20
-93.000729
 30
0.0
 11
130.004241
 21
-95.578001
 31
0.0
  0
LINE
  5
60E
330
1F
100
AcDbEntity
  8
101
  6
Continuous
 62
     7
370
    30
100
AcDbLine
 10
141.908787
 20
-89.196183
 30
0.0
 11
135.649696
 21
-93.000729
 31
0.0
  0
LINE
  5
60F
330
1F
100
AcDbEntity
  8
101
  6
Continuous
 62
     7
370
    30
100
AcDbLine
 10
147.18606
 20
-85.514365
 30
0.0
 11
141.908787
 21
-89.196183
 31
0.0
  0
LINE
  5
610
330
1F
100
AcDbEntity
  8
101
  6
Continuous
 62
     7
370
    30
100
AcDbLine
 10
151.849696
 20
-80.973456
 30
0.0
 11
147.18606
 21
-85.514365
 31
0.0
  0
LINE
  5
611
330
1F
100
AcDbEntity
  8
101
  6
Continuous
 62
     7
370
    30
100
AcDbLine
 10
156.267878
 20
-75.450729
 30
0.0
 11
151.849696
 21
-80.973456
 31
0.0
  0
LINE
  5
612
330
1F
100
AcDbEntity
  8
101
  6
Continuous
 62
     7
370
    30
100
AcDbLine
 10
159.581514
 20
-69.682547
 30
0.0
 11
156.267878
 21
-75.450729
 31
0.0
  0
LINE
  5
613
330
1F
100
AcDbEntity
  8
101
  6
Continuous
 62
     7
370
    30
100
AcDbLine
 10
162.404241
 20
-63.546183
 30
0.0
 11
159.581514
 21
-69.682547
 31
0.0
  0
LINE
  5
614
330
1F
100
AcDbEntity
  8
101
  6
Continuous
 62
     7
370
    30
100
AcDbLine
 10
164.858787
 20
-55.814365
 30
0.0
 11
162.404241
 21
-63.546183
 31
0.0
  0
LINE
  5
615
330
1F
100
AcDbEntity
  8
101
  6
Continuous
 62
     7
370
    30
100
AcDbLine
 10
165.963332
 20
-47.95982
 30
0.0
 11
164.858787
 21
-55.814365
 31
0.0
  0
LINE
  5
616
330
1F
100
AcDbEntity
  8
101
  6
Continuous
 62
     7
370
    30
100
AcDbLine
 10
166.08606
 20
-40.228001
 30
0.0
 11
165.963332
 21
-47.95982
 31
0.0
  0
LINE
  5
617
330
1F
100
AcDbEntity
  8
101
  6
Continuous
 62
     7
370
    30
100
AcDbLine
 10
166.208787
 20
-35.196183
 30
0.0
 11
166.08606
 21
-40.228001
 31
0.0
  0
LINE
  5
618
330
1F
100
AcDbEntity
  8
101
  6
Continuous
 62
     7
370
    30
100
AcDbLine
 10
165.840605
 20
-32.496183
 30
0.0
 11
166.208787
 21
-35.196183
 31
0.0
  0
LINE
  5
619
330
1F
100
AcDbEntity
  8
101
  6
Continuous
 62
     7
370
    30
100
AcDbLine
 10
164.367878
 20
-29.550729
 30
0.0
 11
165.840605
 21
-32.496183
 31
0.0
  0
LINE
  5
61A
330
1F
100
AcDbEntity
  8
101
  6
Continuous
 62
     7
370
    30
100
AcDbLine
 10
164.73606
 20
-27.955274
 30
0.0
 11
164.367878
 21
-29.550729
 31
0.0
  0
LINE
  5
61B
330
1F
100
AcDbEntity
  8
101
  6
Continuous
 62
     7
370
    30
100
AcDbLine
 10
165.840605
 20
-25.500729
 30
0.0
 11
164.73606
 21
-27.955274
 31
0.0
  0
LINE
  5
61C
330
1F
100
AcDbEntity
  8
101
  6
Continuous
 62
     7
370
    30
100
AcDbLine
 10
168.540605
 20
-24.396183
 30
0.0
 11
165.840605
 21
-25.500729
 31
0.0
  0
LINE
  5
61D
330
1F
100
AcDbEntity
  8
101
  6
Continuous
 62
     7
370
    30
100
AcDbLine
 10
170.872423
 20
-24.518911
 30
0.0
 11
168.540605
 21
-24.396183
 31
0.0
  0
LINE
  5
61E
330
1F
100
AcDbEntity
  8
101
  6
Continuous
 62
     7
370
    30
100
AcDbLine
 10
172.222423
 20
-25.746183
 30
0.0
 11
170.872423
 21
-24.518911
 31
0.0
  0
LINE
  5
61F
330
1F
100
AcDbEntity
  8
101
  6
Continuous
 62
     7
370
    30
100
AcDbLine
 10
171.48606
 20
-29.673456
 30
0.0
 11
172.222423
 21
-25.746183
 31
0.0
  0
LINE
  5
620
330
1F
100
AcDbEntity
  8
101
  6
Continuous
 62
     7
370
    30
100
AcDbLine
 10
171.48606
 20
-42.55982
 30
0.0
 11
171.48606
 21
-29.673456
 31
0.0
  0
LINE
  5
621
330
1F
100
AcDbEntity
  8
101
  6
Continuous
 62
     7
370
    30
100
AcDbLine
 10
171.240605
 20
-52.132547
 30
0.0
 11
171.48606
 21
-42.55982
 31
0.0
  0
LINE
  5
622
330
1F
100
AcDbEntity
  8
101
  6
Continuous
 62
     7
370
    30
100
AcDbLine
 10
170.013332
 20
-57.655274
 30
0.0
 11
171.240605
 21
-52.132547
 31
0.0
  0
LINE
  5
623
330
1F
100
AcDbEntity
  8
101
  6
Continuous
 62
     7
370
    30
100
AcDbLine
 10
167.681514
 20
-65.264365
 30
0.0
 11
170.013332
 21
-57.655274
 31
0.0
  0
LINE
  5
624
330
1F
100
AcDbEntity
  8
101
  6
Continuous
 62
     7
370
    30
100
AcDbLine
 10
164.490605
 20
-71.768911
 30
0.0
 11
167.681514
 21
-65.264365
 31
0.0
  0
LINE
  5
625
330
1F
100
AcDbEntity
  8
101
  6
Continuous
 62
     7
370
    30
100
AcDbLine
 10
159.704241
 20
-79.623456
 30
0.0
 11
164.490605
 21
-71.768911
 31
0.0
  0
LINE
  5
626
330
1F
100
AcDbEntity
  8
101
  6
Continuous
 62
     7
370
    30
100
AcDbLine
 10
154.181514
 20
-86.128001
 30
0.0
 11
159.704241
 21
-79.623456
 31
0.0
  0
LINE
  5
627
330
1F
100
AcDbEntity
  8
101
  6
Continuous
 62
     7
370
    30
100
AcDbLine
 10
147.922423
 20
-91.405274
 30
0.0
 11
154.181514
 21
-86.128001
 31
0.0
  0
LINE
  5
628
330
1F
100
AcDbEntity
  8
101
  6
Continuous
 62
     7
370
    30
100
AcDbLine
 10
142.031514
 20
-95.946183
 30
0.0
 11
147.922423
 21
-91.405274
 31
0.0
  0
LINE
  5
629
330
1F
100
AcDbEntity
  8
101
  6
Continuous
 62
     7
370
    30
100
AcDbLine
 10
133.317878
 20
-100.118911
 30
0.0
 11
142.031514
 21
-95.946183
 31
0.0
  0
LINE
  5
62A
330
1F
100
AcDbEntity
  8
101
  6
Continuous
 62
     7
370
    30
100
AcDbLine
 10
123.008787
 20
-104.168911
 30
0.0
 11
133.317878
 21
-100.118911
 31
0.0
  0
LINE
  5
62B
330
1F
100
AcDbEntity
  8
101
  6
Continuous
 62
     7
370
    30
100
AcDbLine
 10
115.890605
 20
-105.150729
 30
0.0
 11
123.008787
 21
-104.168911
 31
0.0
  0
LINE
  5
62C
330
1F
100
AcDbEntity
  8
101
  6
Continuous
 62
     7
370
    30
100
AcDbLine
 10
113.067878
 20
-104.782547
 30
0.0
 11
115.890605
 21
-105.150729
 31
0.0
  0
LINE
  5
62D
330
1F
100
AcDbEntity
  8
101
  6
Continuous
 62
     7
370
    30
100
AcDbLine
 10
109.876969
 20
-103.800729
 30
0.0
 11
113.067878
 21
-104.782547
 31
0.0
  0
MTEXT
  5
62E
330
1F
100
AcDbEntity
  8
100
  6
Continuous
 62
     7
370
     9
100
AcDbMText
 10
-37.06975307182884
 20
261.509091
 30
0.0
 40
25.0
 41
349.4765505874703
 46
25.0
 71
     7
 72
     1
  1
{\fＭＳ ゴシック;\W0.714286;[電球色ＬＥＤランプ付]}
 73
     1
 44
1.0
  0
ENDSEC
  0
SECTION
  2
OBJECTS
  0
DICTIONARY
  5
C
330
0
100
AcDbDictionary
281
     1
  3
ACAD_DETAILVIEWSTYLE
350
636
  3
ACAD_GROUP
350
D
  3
ACAD_LAYOUT
350
1A
  3
ACAD_MATERIAL
350
43
  3
ACAD_MLEADERSTYLE
350
6B
  3
ACAD_MLINESTYLE
350
17
  3
ACAD_PLOTSETTINGS
350
19
  3
ACAD_PLOTSTYLENAME
350
E
  3
ACAD_SCALELIST
350
47
  3
ACAD_SECTIONVIEWSTYLE
350
637
  3
ACAD_TABLESTYLE
350
69
  3
ACAD_VISUALSTYLE
350
2A
  3
ACDB_RECOMPOSE_DATA
350
633
  3
AcDbVariableDictionary
350
62F
  0
SUN
  5
6D
330
29
100
AcDbSun
 90
        1
290
     0
 63
     7
421
 16777215
 40
1.0
291
     1
 91
  2455826
 92
 54000000
292
     0
 70
     2
 71
   256
280
     1
  0
DICTIONARY
  5
636
102
{ACAD_REACTORS
330
C
102
}
330
C
100
AcDbDictionary
281
     1
  0
DICTIONARY
  5
D
102
{ACAD_REACTORS
330
C
102
}
330
C
100
AcDbDictionary
281
     1
  0
DICTIONARY
  5
1A
102
{ACAD_REACTORS
330
C
102
}
330
C
100
AcDbDictionary
281
     1
  3
Layout1
350
1E
  3
Layout2
350
26
  3
Model
350
22
  0
DICTIONARY
  5
43
102
{ACAD_REACTORS
330
C
102
}
330
C
100
AcDbDictionary
281
     1
  3
ByBlock
350
45
  3
ByLayer
350
44
  3
Global
350
46
  0
DICTIONARY
  5
6B
102
{ACAD_REACTORS
330
C
102
}
330
C
100
AcDbDictionary
281
     1
  3
Standard
350
6C
  0
DICTIONARY
  5
17
102
{ACAD_REACTORS
330
C
102
}
330
C
100
AcDbDictionary
281
     1
  3
Standard
350
18
  0
DICTIONARY
  5
19
102
{ACAD_REACTORS
330
C
102
}
330
C
100
AcDbDictionary
281
     1
  0
ACDBDICTIONARYWDFLT
  5
E
102
{ACAD_REACTORS
330
C
102
}
330
C
100
AcDbDictionary
281
     1
  3
Normal
350
F
100
AcDbDictionaryWithDefault
340
F
  0
DICTIONARY
  5
47
102
{ACAD_REACTORS
330
C
102
}
330
C
100
AcDbDictionary
281
     1
  3
A0
350
48
  3
A1
350
49
  3
A2
350
4A
  3
A3
350
4B
  3
A4
350
4C
  3
A5
350
4D
  3
A6
350
4E
  3
A7
350
4F
  3
A8
350
50
  3
A9
350
51
  3
B0
350
52
  3
B1
350
53
  3
B2
350
54
  3
B3
350
55
  3
B4
350
56
  3
B5
350
57
  3
B6
350
58
  3
B7
350
59
  3
B8
350
5A
  3
B9
350
5B
  3
C0
350
5C
  3
C1
350
5D
  3
C2
350
5E
  3
C3
350
5F
  3
C4
350
60
  3
C5
350
61
  3
C6
350
62
  3
C7
350
63
  3
C8
350
64
  3
C9
350
65
  3
D0
350
66
  3
D1
350
67
  3
D2
350
68
  0
DICTIONARY
  5
637
102
{ACAD_REACTORS
330
C
102
}
330
C
100
AcDbDictionary
281
     1
  0
DICTIONARY
  5
69
102
{ACAD_REACTORS
330
C
102
}
330
C
100
AcDbDictionary
281
     1
  3
Standard
350
6A
  0
DICTIONARY
  5
2A
102
{ACAD_REACTORS
330
C
102
}
330
C
100
AcDbDictionary
281
     1
  3
2dWireframe
350
2F
  3
Basic
350
32
  3
Brighten
350
36
  3
ColorChange
350
3A
  3
Conceptual
350
34
  3
Dim
350
35
  3
EdgeColorOff
350
3D
  3
Facepattern
350
39
  3
Flat
350
2B
  3
FlatWithEdges
350
2C
  3
Gouraud
350
2D
  3
GouraudWithEdges
350
2E
  3
Hidden
350
31
  3
JitterOff
350
3B
  3
Linepattern
350
38
  3
OverhangOff
350
3C
  3
Realistic
350
33
  3
Shaded
350
42
  3
Shaded with edges
350
41
  3
Shades of Gray
350
3E
  3
Sketchy
350
3F
  3
Thicken
350
37
  3
Wireframe
350
30
  3
X-Ray
350
40
  0
XRECORD
  5
633
102
{ACAD_REACTORS
330
C
102
}
330
C
100
AcDbXrecord
280
     1
 90
        1
330
6A
  0
DICTIONARY
  5
62F
102
{ACAD_REACTORS
330
C
102
}
330
C
100
AcDbDictionary
281
     1
  3
CANNOSCALE
350
630
  3
CMLEADERSTYLE
350
635
  3
CTABLESTYLE
350
634
  0
LAYOUT
  5
1E
102
{ACAD_REACTORS
330
1A
102
}
330
1A
100
AcDbPlotSettings
  1

  2
none_device
  4

  6

 40
0.0
 41
0.0
 42
0.0
 43
0.0
 44
0.0
 45
0.0
 46
0.0
 47
0.0
 48
0.0
 49
0.0
140
0.0
141
0.0
142
1.0
143
1.0
 70
   688
 72
     0
 73
     0
 74
     5
  7

 75
    16
 76
     0
 77
     2
 78
   300
147
1.0
148
0.0
149
0.0
100
AcDbLayout
  1
Layout1
 70
     1
 71
     1
 10
0.0
 20
0.0
 11
297.0
 21
210.0
 12
0.0
 22
0.0
 32
0.0
 14
0.0
 24
0.0
 34
0.0
 15
297.0
 25
210.0
 35
0.0
146
0.0
 13
0.0
 23
0.0
 33
0.0
 16
1.0
 26
0.0
 36
0.0
 17
0.0
 27
1.0
 37
0.0
 76
     0
330
1B
  0
LAYOUT
  5
26
102
{ACAD_REACTORS
330
1A
102
}
330
1A
100
AcDbPlotSettings
  1

  2
none_device
  4

  6

 40
0.0
 41
0.0
 42
0.0
 43
0.0
 44
0.0
 45
0.0
 46
0.0
 47
0.0
 48
0.0
 49
0.0
140
0.0
141
0.0
142
1.0
143
1.0
 70
   688
 72
     0
 73
     0
 74
     5
  7

 75
    16
 76
     0
 77
     2
 78
   300
147
1.0
148
0.0
149
0.0
100
AcDbLayout
  1
Layout2
 70
     1
 71
     2
 10
0.0
 20
0.0
 11
0.0
 21
0.0
 12
0.0
 22
0.0
 32
0.0
 14
0.0
 24
0.0
 34
0.0
 15
0.0
 25
0.0
 35
0.0
146
0.0
 13
0.0
 23
0.0
 33
0.0
 16
1.0
 26
0.0
 36
0.0
 17
0.0
 27
1.0
 37
0.0
 76
     0
330
23
  0
LAYOUT
  5
22
102
{ACAD_REACTORS
330
1A
102
}
330
1A
100
AcDbPlotSettings
  1

  2
none_device
  4
Letter_(8.50_x_11.00_Inches)
  6

 40
6.35
 41
6.35
 42
6.35000508
 43
6.35000508
 44
215.9
 45
279.4
 46
0.0
 47
0.0
 48
0.0
 49
0.0
140
0.0
141
0.0
142
1.0
143
1.0
 70
  1712
 72
     0
 73
     0
 74
     0
  7

 75
     0
 76
     0
 77
     2
 78
   300
147
1.0
148
0.0
149
0.0
100
AcDbLayout
  1
Model
 70
     1
 71
     0
 10
0.0
 20
0.0
 11
297.0
 21
210.0
 12
0.0
 22
0.0
 32
0.0
 14
-37.06975307182884
 24
-202.254545
 34
0.0
 15
237.9302469281712
 25
363.4030303939394
 35
0.0
146
0.0
 13
0.0
 23
0.0
 33
0.0
 16
1.0
 26
0.0
 36
0.0
 17
0.0
 27
1.0
 37
0.0
 76
     0
330
1F
331
29
  0
MATERIAL
  5
45
102
{ACAD_REACTORS
330
43
102
}
330
43
100
AcDbMaterial
  1
ByBlock
 72
     1
 94
      127
  0
MATERIAL
  5
44
102
{ACAD_REACTORS
330
43
102
}
330
43
100
AcDbMaterial
  1
ByLayer
 72
     1
 94
      127
  0
MATERIAL
  5
46
102
{ACAD_REACTORS
330
43
102
}
330
43
100
AcDbMaterial
  1
Global
 72
     1
 94
      127
  0
MLEADERSTYLE
  5
6C
102
{ACAD_REACTORS
330
6B
102
}
330
6B
100
AcDbMLeaderStyle
179
     2
170
     2
171
     1
172
     0
 90
        2
 40
0.0
 41
0.0
173
     1
 91
-1056964608
340
14
 92
       -2
290
     1
 42
0.09
291
     1
 43
0.36
  3
Standard
341
0
 44
0.18
300

342
11
174
     1
178
     6
175
     1
176
     0
 93
-1056964608
 45
0.18
292
     0
297
     0
 46
0.18
343
0
 94
-1056964608
 47
1.0
 49
1.0
140
1.0
293
     1
141
0.0
294
     1
177
     0
142
1.0
295
     0
296
     0
143
0.125
271
     0
272
     9
273
     9
298
     0
  0
MLINESTYLE
  5
18
102
{ACAD_REACTORS
330
17
102
}
330
17
100
AcDbMlineStyle
  2
Standard
 70
     0
  3

 62
   256
 51
90.0
 52
90.0
 71
     2
 49
0.5
 62
   256
  6
BYLAYER
 49
-0.5
 62
   256
  6
BYLAYER
  0
ACDBPLACEHOLDER
  5
F
102
{ACAD_REACTORS
330
E
102
}
330
E
  0
SCALE
  5
48
102
{ACAD_REACTORS
330
47
102
}
330
47
100
AcDbScale
 70
     0
300
1:1
140
1.0
141
1.0
290
     1
  0
SCALE
  5
49
102
{ACAD_REACTORS
330
47
102
}
330
47
100
AcDbScale
 70
     0
300
1:2
140
1.0
141
2.0
290
     0
  0
SCALE
  5
4A
102
{ACAD_REACTORS
330
47
102
}
330
47
100
AcDbScale
 70
     0
300
1:4
140
1.0
141
4.0
290
     0
  0
SCALE
  5
4B
102
{ACAD_REACTORS
330
47
102
}
330
47
100
AcDbScale
 70
     0
300
1:5
140
1.0
141
5.0
290
     0
  0
SCALE
  5
4C
102
{ACAD_REACTORS
330
47
102
}
330
47
100
AcDbScale
 70
     0
300
1:8
140
1.0
141
8.0
290
     0
  0
SCALE
  5
4D
102
{ACAD_REACTORS
330
47
102
}
330
47
100
AcDbScale
 70
     0
300
1:10
140
1.0
141
10.0
290
     0
  0
SCALE
  5
4E
102
{ACAD_REACTORS
330
47
102
}
330
47
100
AcDbScale
 70
     0
300
1:16
140
1.0
141
16.0
290
     0
  0
SCALE
  5
4F
102
{ACAD_REACTORS
330
47
102
}
330
47
100
AcDbScale
 70
     0
300
1:20
140
1.0
141
20.0
290
     0
  0
SCALE
  5
50
102
{ACAD_REACTORS
330
47
102
}
330
47
100
AcDbScale
 70
     0
300
1:30
140
1.0
141
30.0
290
     0
  0
SCALE
  5
51
102
{ACAD_REACTORS
330
47
102
}
330
47
100
AcDbScale
 70
     0
300
1:40
140
1.0
141
40.0
290
     0
  0
SCALE
  5
52
102
{ACAD_REACTORS
330
47
102
}
330
47
100
AcDbScale
 70
     0
300
1:50
140
1.0
141
50.0
290
     0
  0
SCALE
  5
53
102
{ACAD_REACTORS
330
47
102
}
330
47
100
AcDbScale
 70
     0
300
1:100
140
1.0
141
100.0
290
     0
  0
SCALE
  5
54
102
{ACAD_REACTORS
330
47
102
}
330
47
100
AcDbScale
 70
     0
300
2:1
140
2.0
141
1.0
290
     0
  0
SCALE
  5
55
102
{ACAD_REACTORS
330
47
102
}
330
47
100
AcDbScale
 70
     0
300
4:1
140
4.0
141
1.0
290
     0
  0
SCALE
  5
56
102
{ACAD_REACTORS
330
47
102
}
330
47
100
AcDbScale
 70
     0
300
8:1
140
8.0
141
1.0
290
     0
  0
SCALE
  5
57
102
{ACAD_REACTORS
330
47
102
}
330
47
100
AcDbScale
 70
     0
300
10:1
140
10.0
141
1.0
290
     0
  0
SCALE
  5
58
102
{ACAD_REACTORS
330
47
102
}
330
47
100
AcDbScale
 70
     0
300
100:1
140
100.0
141
1.0
290
     0
  0
SCALE
  5
59
102
{ACAD_REACTORS
330
47
102
}
330
47
100
AcDbScale
 70
     0
300
1/128" = 1'-0"
140
0.0078125
141
12.0
290
     0
  0
SCALE
  5
5A
102
{ACAD_REACTORS
330
47
102
}
330
47
100
AcDbScale
 70
     0
300
1/64" = 1'-0"
140
0.015625
141
12.0
290
     0
  0
SCALE
  5
5B
102
{ACAD_REACTORS
330
47
102
}
330
47
100
AcDbScale
 70
     0
300
1/32" = 1'-0"
140
0.03125
141
12.0
290
     0
  0
SCALE
  5
5C
102
{ACAD_REACTORS
330
47
102
}
330
47
100
AcDbScale
 70
     0
300
1/16" = 1'-0"
140
0.0625
141
12.0
290
     0
  0
SCALE
  5
5D
102
{ACAD_REACTORS
330
47
102
}
330
47
100
AcDbScale
 70
     0
300
3/32" = 1'-0"
140
0.09375
141
12.0
290
     0
  0
SCALE
  5
5E
102
{ACAD_REACTORS
330
47
102
}
330
47
100
AcDbScale
 70
     0
300
1/8" = 1'-0"
140
0.125
141
12.0
290
     0
  0
SCALE
  5
5F
102
{ACAD_REACTORS
330
47
102
}
330
47
100
AcDbScale
 70
     0
300
3/16" = 1'-0"
140
0.1875
141
12.0
290
     0
  0
SCALE
  5
60
102
{ACAD_REACTORS
330
47
102
}
330
47
100
AcDbScale
 70
     0
300
1/4" = 1'-0"
140
0.25
141
12.0
290
     0
  0
SCALE
  5
61
102
{ACAD_REACTORS
330
47
102
}
330
47
100
AcDbScale
 70
     0
300
3/8" = 1'-0"
140
0.375
141
12.0
290
     0
  0
SCALE
  5
62
102
{ACAD_REACTORS
330
47
102
}
330
47
100
AcDbScale
 70
     0
300
1/2" = 1'-0"
140
0.5
141
12.0
290
     0
  0
SCALE
  5
63
102
{ACAD_REACTORS
330
47
102
}
330
47
100
AcDbScale
 70
     0
300
3/4" = 1'-0"
140
0.75
141
12.0
290
     0
  0
SCALE
  5
64
102
{ACAD_REACTORS
330
47
102
}
330
47
100
AcDbScale
 70
     0
300
1" = 1'-0"
140
1.0
141
12.0
290
     0
  0
SCALE
  5
65
102
{ACAD_REACTORS
330
47
102
}
330
47
100
AcDbScale
 70
     0
300
1-1/2" = 1'-0"
140
1.5
141
12.0
290
     0
  0
SCALE
  5
66
102
{ACAD_REACTORS
330
47
102
}
330
47
100
AcDbScale
 70
     0
300
3" = 1'-0"
140
3.0
141
12.0
290
     0
  0
SCALE
  5
67
102
{ACAD_REACTORS
330
47
102
}
330
47
100
AcDbScale
 70
     0
300
6" = 1'-0"
140
6.0
141
12.0
290
     0
  0
SCALE
  5
68
102
{ACAD_REACTORS
330
47
102
}
330
47
100
AcDbScale
 70
     0
300
1'-0" = 1'-0"
140
12.0
141
12.0
290
     0
  0
TABLESTYLE
  5
6A
102
{ACAD_REACTORS
330
69
102
}
102
{ACAD_XDICTIONARY
360
631
102
}
330
69
100
AcDbTableStyle
  3
Standard
 70
     0
 71
     0
 40
0.06
 41
0.06
280
     0
281
     0
  7
Standard
140
0.18
170
     2
 62
     0
 63
   257
283
     0
 90
        4
 91
        0
  1

274
    -2
284
     1
 64
     0
275
    -2
285
     1
 65
     0
276
    -2
286
     1
 66
     0
277
    -2
287
     1
 67
     0
278
    -2
288
     1
 68
     0
279
    -2
289
     1
 69
     0
  7
Standard
140
0.25
170
     5
 62
     0
 63
   257
283
     0
 90
        4
 91
        0
  1

274
    -2
284
     1
 64
     0
275
    -2
285
     1
 65
     0
276
    -2
286
     1
 66
     0
277
    -2
287
     1
 67
     0
278
    -2
288
     1
 68
     0
279
    -2
289
     1
 69
     0
  7
Standard
140
0.18
170
     5
 62
     0
 63
   257
283
     0
 90
        4
 91
        0
  1

274
    -2
284
     1
 64
     0
275
    -2
285
     1
 65
     0
276
    -2
286
     1
 66
     0
277
    -2
287
     1
 67
     0
278
    -2
288
     1
 68
     0
279
    -2
289
     1
 69
     0
  0
VISUALSTYLE
  5
2F
102
{ACAD_REACTORS
330
2A
102
}
330
2A
100
AcDbVisualStyle
  2
2dWireframe
 70
     4
177
     3
291
     0
 70
    58
 90
        0
176
     1
 90
        2
176
     1
 90
        0
176
     1
 90
        0
176
     1
 40
0.6
176
     1
 40
30.0
176
     1
 62
     7
420
 16777215
176
     1
 90
        1
176
     1
 90
        4
176
     1
 62
     7
176
     1
 62
   257
176
     1
 90
        1
176
     1
 90
        1
176
     1
 40
1.0
176
     1
 90
        0
176
     1
 62
   257
176
     1
 40
1.0
176
     1
 90
        1
176
     1
 90
        6
176
     1
 90
        2
176
     1
 62
     7
176
     1
 90
        5
176
     1
 90
        0
176
     1
 90
        0
176
     1
290
     0
176
     1
 90
        1
176
     1
 40
0.0
176
     1
 90
        0
176
     1
290
     1
176
     1
290
     1
176
     1
290
     0
176
     1
290
     0
176
     1
290
     0
176
     1
290
     0
176
     1
290
     0
176
     1
290
     0
176
     1
290
     0
176
     1
 90
       50
176
     1
 40
0.0
176
     1
 40
1.0
176
     1
 90
        0
176
     1
 62
    18
420
        0
176
     1
 90
       50
176
     1
 90
        3
176
     1
 62
     5
420
      255
176
     1
290
     0
176
     1
 90
       50
176
     1
 90
       50
176
     1
 90
       50
176
     1
290
     0
176
     1
 90
       50
176
     1
 62
   256
176
     0
 40
1.0
176
     0
 90
        2
176
     1
  1
strokes_ogs.tif
176
     1
290
     0
176
     1
 40
1.0
176
     1
 40
1.0
176
     1
  0
VISUALSTYLE
  5
32
102
{ACAD_REACTORS
330
2A
102
}
330
2A
100
AcDbVisualStyle
  2
Basic
 70
     7
177
     3
291
     1
 70
    58
 90
        1
176
     1
 90
        0
176
     1
 90
        1
176
     1
 90
        0
176
     1
 40
0.6
176
     1
 40
30.0
176
     1
 62
     7
420
 16777215
176
     1
 90
        0
176
     1
 90
        4
176
     1
 62
     7
176
     1
 62
   257
176
     1
 90
        1
176
     1
 90
        1
176
     1
 40
1.0
176
     1
 90
        8
176
     1
 62
     7
176
     1
 40
1.0
176
     1
 90
        1
176
     1
 90
        6
176
     1
 90
        2
176
     1
 62
     7
176
     1
 90
        5
176
     1
 90
        0
176
     1
 90
        0
176
     1
290
     0
176
     1
 90
        1
176
     1
 40
0.0
176
     1
 90
        0
176
     1
290
     0
176
     1
290
     1
176
     1
290
     1
176
     1
290
     0
176
     1
290
     0
176
     1
290
     0
176
     1
290
     0
176
     1
290
     0
176
     1
290
     0
176
     1
 90
       50
176
     1
 40
0.0
176
     1
 40
1.0
176
     1
 90
        0
176
     1
 62
    18
420
        0
176
     1
 90
       50
176
     1
 90
        3
176
     1
 62
     5
420
      255
176
     1
290
     0
176
     1
 90
       50
176
     1
 90
       50
176
     1
 90
       50
176
     1
290
     0
176
     1
 90
       50
176
     1
 62
   256
176
     0
 40
1.0
176
     0
 90
        2
176
     1
  1
strokes_ogs.tif
176
     1
290
     0
176
     1
 40
1.0
176
     1
 40
1.0
176
     1
  0
VISUALSTYLE
  5
36
102
{ACAD_REACTORS
330
2A
102
}
330
2A
100
AcDbVisualStyle
  2
Brighten
 70
    12
177
     3
291
     1
 70
    58
 90
        2
176
     1
 90
        2
176
     1
 90
        0
176
     1
 90
        0
176
     1
 40
0.6
176
     1
 40
30.0
176
     1
 62
     7
420
 16777215
176
     1
 90
        1
176
     1
 90
        4
176
     1
 62
     7
176
     1
 62
   257
176
     1
 90
        1
176
     1
 90
        1
176
     1
 40
1.0
176
     1
 90
        8
176
     1
 62
     7
176
     1
 40
1.0
176
     1
 90
        1
176
     1
 90
        6
176
     1
 90
        2
176
     1
 62
     7
176
     1
 90
        5
176
     1
 90
        0
176
     1
 90
        0
176
     1
290
     0
176
     1
 90
        1
176
     1
 40
50.0
176
     1
 90
        0
176
     1
290
     0
176
     1
290
     1
176
     1
290
     1
176
     1
290
     0
176
     1
290
     0
176
     1
290
     0
176
     1
290
     0
176
     1
290
     0
176
     1
290
     0
176
     1
 90
       50
176
     1
 40
0.0
176
     1
 40
1.0
176
     1
 90
        0
176
     1
 62
    18
420
        0
176
     1
 90
       50
176
     1
 90
        3
176
     1
 62
     5
420
      255
176
     1
290
     0
176
     1
 90
       50
176
     1
 90
       50
176
     1
 90
       50
176
     1
290
     0
176
     1
 90
       50
176
     1
 62
   256
176
     0
 40
1.0
176
     0
 90
        2
176
     1
  1
strokes_ogs.tif
176
     1
290
     0
176
     1
 40
1.0
176
     1
 40
1.0
176
     1
  0
VISUALSTYLE
  5
3A
102
{ACAD_REACTORS
330
2A
102
}
330
2A
100
AcDbVisualStyle
  2
ColorChange
 70
    16
177
     3
291
     1
 70
    58
 90
        2
176
     1
 90
        2
176
     1
 90
        3
176
     1
 90
        0
176
     1
 40
0.6
176
     1
 40
30.0
176
     1
 62
     8
420
  8421504
176
     1
 90
        1
176
     1
 90
        4
176
     1
 62
     7
176
     1
 62
   257
176
     1
 90
        1
176
     1
 90
        1
176
     1
 40
1.0
176
     1
 90
        8
176
     1
 62
     8
420
  8421504
176
     1
 40
1.0
176
     1
 90
        1
176
     1
 90
        6
176
     1
 90
        2
176
     1
 62
     7
176
     1
 90
        5
176
     1
 90
        0
176
     1
 90
        0
176
     1
290
     0
176
     1
 90
        1
176
     1
 40
0.0
176
     1
 90
        0
176
     1
290
     0
176
     1
290
     1
176
     1
290
     1
176
     1
290
     0
176
     1
290
     0
176
     1
290
     0
176
     1
290
     0
176
     1
290
     0
176
     1
290
     0
176
     1
 90
       50
176
     1
 40
0.0
176
     1
 40
1.0
176
     1
 90
        0
176
     1
 62
    18
420
        0
176
     1
 90
       50
176
     1
 90
        3
176
     1
 62
     5
420
      255
176
     1
290
     0
176
     1
 90
       50
176
     1
 90
       50
176
     1
 90
       50
176
     1
290
     0
176
     1
 90
       50
176
     1
 62
   256
176
     0
 40
1.0
176
     0
 90
        2
176
     1
  1
strokes_ogs.tif
176
     1
290
     0
176
     1
 40
1.0
176
     1
 40
1.0
176
     1
  0
VISUALSTYLE
  5
34
102
{ACAD_REACTORS
330
2A
102
}
330
2A
100
AcDbVisualStyle
  2
Conceptual
 70
     9
177
     3
291
     0
 70
    58
 90
        3
176
     1
 90
        2
176
     1
 90
        0
176
     1
 90
        0
176
     1
 40
0.6
176
     1
 40
30.0
176
     1
 62
     7
420
 16777215
176
     1
 90
        2
176
     1
 90
        2
176
     1
 62
     7
176
     1
 62
   257
176
     1
 90
        1
176
     1
 90
        1
176
     1
 40
179.0
176
     1
 90
        8
176
     1
 62
     7
176
     1
 40
1.0
176
     1
 90
        1
176
     1
 90
        6
176
     1
 90
        2
176
     1
 62
     7
176
     1
 90
        3
176
     1
 90
        0
176
     1
 90
        0
176
     1
290
     0
176
     1
 90
        1
176
     1
 40
0.0
176
     1
 90
        0
176
     1
290
     0
176
     1
290
     1
176
     1
290
     1
176
     1
290
     0
176
     1
290
     0
176
     1
290
     0
176
     1
290
     0
176
     1
290
     0
176
     1
290
     0
176
     1
 90
       50
176
     1
 40
0.0
176
     1
 40
1.0
176
     1
 90
        0
176
     1
 62
    18
420
        0
176
     1
 90
       50
176
     1
 90
        3
176
     1
 62
     5
420
      255
176
     1
290
     0
176
     1
 90
       50
176
     1
 90
       50
176
     1
 90
       50
176
     1
290
     0
176
     1
 90
       50
176
     1
 62
   256
176
     0
 40
1.0
176
     0
 90
        2
176
     1
  1
strokes_ogs.tif
176
     1
290
     0
176
     1
 40
1.0
176
     1
 40
1.0
176
     1
  0
VISUALSTYLE
  5
35
102
{ACAD_REACTORS
330
2A
102
}
330
2A
100
AcDbVisualStyle
  2
Dim
 70
    11
177
     3
291
     1
 70
    58
 90
        2
176
     1
 90
        2
176
     1
 90
        0
176
     1
 90
        0
176
     1
 40
0.6
176
     1
 40
30.0
176
     1
 62
     7
420
 16777215
176
     1
 90
        1
176
     1
 90
        4
176
     1
 62
     7
176
     1
 62
   257
176
     1
 90
        1
176
     1
 90
        1
176
     1
 40
1.0
176
     1
 90
        8
176
     1
 62
     7
176
     1
 40
1.0
176
     1
 90
        1
176
     1
 90
        6
176
     1
 90
        2
176
     1
 62
     7
176
     1
 90
        5
176
     1
 90
        0
176
     1
 90
        0
176
     1
290
     0
176
     1
 90
        1
176
     1
 40
-50.0
176
     1
 90
        0
176
     1
290
     0
176
     1
290
     1
176
     1
290
     1
176
     1
290
     0
176
     1
290
     0
176
     1
290
     0
176
     1
290
     0
176
     1
290
     0
176
     1
290
     0
176
     1
 90
       50
176
     1
 40
0.0
176
     1
 40
1.0
176
     1
 90
        0
176
     1
 62
    18
420
        0
176
     1
 90
       50
176
     1
 90
        3
176
     1
 62
     5
420
      255
176
     1
290
     0
176
     1
 90
       50
176
     1
 90
       50
176
     1
 90
       50
176
     1
290
     0
176
     1
 90
       50
176
     1
 62
   256
176
     0
 40
1.0
176
     0
 90
        2
176
     1
  1
strokes_ogs.tif
176
     1
290
     0
176
     1
 40
1.0
176
     1
 40
1.0
176
     1
  0
VISUALSTYLE
  5
3D
102
{ACAD_REACTORS
330
2A
102
}
330
2A
100
AcDbVisualStyle
  2
EdgeColorOff
 70
    22
177
     3
291
     1
 70
    58
 90
        2
176
     0
 90
        2
176
     0
 90
        0
176
     0
 90
        0
176
     0
 40
0.6
176
     0
 40
30.0
176
     0
 62
     7
420
 16777215
176
     0
 90
        1
176
     0
 90
        4
176
     0
 62
     7
176
     0
 62
   257
176
     0
 90
        1
176
     0
 90
        1
176
     0
 40
1.0
176
     0
 90
        8
176
     2
 62
     7
176
     0
 40
1.0
176
     0
 90
        1
176
     0
 90
        6
176
     0
 90
        2
176
     0
 62
     7
176
     0
 90
        5
176
     0
 90
        0
176
     0
 90
        0
176
     0
290
     0
176
     0
 90
        1
176
     0
 40
0.0
176
     0
 90
        0
176
     0
290
     0
176
     0
290
     1
176
     0
290
     1
176
     0
290
     0
176
     0
290
     0
176
     0
290
     0
176
     0
290
     0
176
     0
290
     0
176
     0
290
     0
176
     0
 90
       50
176
     0
 40
0.0
176
     0
 40
1.0
176
     0
 90
        0
176
     0
 62
    18
420
        0
176
     0
 90
       50
176
     0
 90
        3
176
     0
 62
     5
420
      255
176
     0
290
     0
176
     0
 90
       50
176
     0
 90
       50
176
     0
 90
       50
176
     0
290
     0
176
     0
 90
       50
176
     0
 62
   256
176
     0
 40
1.0
176
     0
 90
        2
176
     0
  1
strokes_ogs.tif
176
     0
290
     0
176
     0
 40
1.0
176
     0
 40
1.0
176
     0
  0
VISUALSTYLE
  5
39
102
{ACAD_REACTORS
330
2A
102
}
330
2A
100
AcDbVisualStyle
  2
Facepattern
 70
    15
177
     3
291
     1
 70
    58
 90
        2
176
     1
 90
        2
176
     1
 90
        0
176
     1
 90
        0
176
     1
 40
0.6
176
     1
 40
30.0
176
     1
 62
     7
420
 16777215
176
     1
 90
        1
176
     1
 90
        4
176
     1
 62
     7
176
     1
 62
   257
176
     1
 90
        1
176
     1
 90
        1
176
     1
 40
1.0
176
     1
 90
        8
176
     1
 62
     7
176
     1
 40
1.0
176
     1
 90
        1
176
     1
 90
        6
176
     1
 90
        2
176
     1
 62
     7
176
     1
 90
        5
176
     1
 90
        0
176
     1
 90
        0
176
     1
290
     0
176
     1
 90
        1
176
     1
 40
0.0
176
     1
 90
        0
176
     1
290
     0
176
     1
290
     1
176
     1
290
     1
176
     1
290
     0
176
     1
290
     0
176
     1
290
     0
176
     1
290
     0
176
     1
290
     0
176
     1
290
     0
176
     1
 90
       50
176
     1
 40
0.0
176
     1
 40
1.0
176
     1
 90
        0
176
     1
 62
    18
420
        0
176
     1
 90
       50
176
     1
 90
        3
176
     1
 62
     5
420
      255
176
     1
290
     0
176
     1
 90
       50
176
     1
 90
       50
176
     1
 90
       50
176
     1
290
     0
176
     1
 90
       50
176
     1
 62
   256
176
     0
 40
1.0
176
     0
 90
        2
176
     1
  1
strokes_ogs.tif
176
     1
290
     0
176
     1
 40
1.0
176
     1
 40
1.0
176
     1
  0
VISUALSTYLE
  5
2B
102
{ACAD_REACTORS
330
2A
102
}
330
2A
100
AcDbVisualStyle
  2
Flat
 70
     0
177
     3
291
     1
 70
    58
 90
        2
176
     1
 90
        1
176
     1
 90
        1
176
     1
 90
        2
176
     1
 40
0.6
176
     1
 40
30.0
176
     1
 62
     7
420
 16777215
176
     1
 90
        0
176
     1
 90
        0
176
     1
 62
     7
176
     1
 62
   257
176
     1
 90
        1
176
     1
 90
        1
176
     1
 40
1.0
176
     1
 90
        8
176
     1
 62
     7
176
     1
 40
1.0
176
     1
 90
        1
176
     1
 90
        6
176
     1
 90
        2
176
     1
 62
     7
176
     1
 90
        5
176
     1
 90
        0
176
     1
 90
        0
176
     1
290
     0
176
     1
 90
       13
176
     1
 40
0.0
176
     1
 90
        0
176
     1
290
     0
176
     1
290
     1
176
     1
290
     1
176
     1
290
     0
176
     1
290
     0
176
     1
290
     0
176
     1
290
     0
176
     1
290
     0
176
     1
290
     0
176
     1
 90
       50
176
     1
 40
0.0
176
     1
 40
1.0
176
     1
 90
        0
176
     1
 62
    18
420
        0
176
     1
 90
       50
176
     1
 90
        3
176
     1
 62
     5
420
      255
176
     1
290
     0
176
     1
 90
       50
176
     1
 90
       50
176
     1
 90
       50
176
     1
290
     0
176
     1
 90
       50
176
     1
 62
   256
176
     0
 40
1.0
176
     0
 90
        2
176
     1
  1
strokes_ogs.tif
176
     1
290
     0
176
     1
 40
1.0
176
     1
 40
1.0
176
     1
  0
VISUALSTYLE
  5
2C
102
{ACAD_REACTORS
330
2A
102
}
330
2A
100
AcDbVisualStyle
  2
FlatWithEdges
 70
     1
177
     3
291
     1
 70
    58
 90
        2
176
     1
 90
        1
176
     1
 90
        1
176
     1
 90
        2
176
     1
 40
0.6
176
     1
 40
30.0
176
     1
 62
     7
420
 16777215
176
     1
 90
        1
176
     1
 90
        0
176
     1
 62
     7
176
     1
 62
   257
176
     1
 90
        1
176
     1
 90
        1
176
     1
 40
1.0
176
     1
 90
        0
176
     1
 62
   257
176
     1
 40
1.0
176
     1
 90
        1
176
     1
 90
        6
176
     1
 90
        2
176
     1
 62
     7
176
     1
 90
        5
176
     1
 90
        0
176
     1
 90
        0
176
     1
290
     0
176
     1
 90
       13
176
     1
 40
0.0
176
     1
 90
        0
176
     1
290
     0
176
     1
290
     1
176
     1
290
     1
176
     1
290
     0
176
     1
290
     0
176
     1
290
     0
176
     1
290
     0
176
     1
290
     0
176
     1
290
     0
176
     1
 90
       50
176
     1
 40
0.0
176
     1
 40
1.0
176
     1
 90
        0
176
     1
 62
    18
420
        0
176
     1
 90
       50
176
     1
 90
        3
176
     1
 62
     5
420
      255
176
     1
290
     0
176
     1
 90
       50
176
     1
 90
       50
176
     1
 90
       50
176
     1
290
     0
176
     1
 90
       50
176
     1
 62
   256
176
     0
 40
1.0
176
     0
 90
        2
176
     1
  1
strokes_ogs.tif
176
     1
290
     0
176
     1
 40
1.0
176
     1
 40
1.0
176
     1
  0
VISUALSTYLE
  5
2D
102
{ACAD_REACTORS
330
2A
102
}
330
2A
100
AcDbVisualStyle
  2
Gouraud
 70
     2
177
     3
291
     1
 70
    58
 90
        2
176
     1
 90
        2
176
     1
 90
        1
176
     1
 90
        2
176
     1
 40
0.6
176
     1
 40
30.0
176
     1
 62
     7
420
 16777215
176
     1
 90
        0
176
     1
 90
        0
176
     1
 62
     7
176
     1
 62
   257
176
     1
 90
        1
176
     1
 90
        1
176
     1
 40
1.0
176
     1
 90
        0
176
     1
 62
     7
176
     1
 40
1.0
176
     1
 90
        1
176
     1
 90
        6
176
     1
 90
        2
176
     1
 62
     7
176
     1
 90
        5
176
     1
 90
        0
176
     1
 90
        0
176
     1
290
     0
176
     1
 90
       13
176
     1
 40
0.0
176
     1
 90
        0
176
     1
290
     0
176
     1
290
     1
176
     1
290
     1
176
     1
290
     0
176
     1
290
     0
176
     1
290
     0
176
     1
290
     0
176
     1
290
     0
176
     1
290
     0
176
     1
 90
       50
176
     1
 40
0.0
176
     1
 40
1.0
176
     1
 90
        0
176
     1
 62
    18
420
        0
176
     1
 90
       50
176
     1
 90
        3
176
     1
 62
     5
420
      255
176
     1
290
     0
176
     1
 90
       50
176
     1
 90
       50
176
     1
 90
       50
176
     1
290
     0
176
     1
 90
       50
176
     1
 62
   256
176
     0
 40
1.0
176
     0
 90
        2
176
     1
  1
strokes_ogs.tif
176
     1
290
     0
176
     1
 40
1.0
176
     1
 40
1.0
176
     1
  0
VISUALSTYLE
  5
2E
102
{ACAD_REACTORS
330
2A
102
}
330
2A
100
AcDbVisualStyle
  2
GouraudWithEdges
 70
     3
177
     3
291
     1
 70
    58
 90
        2
176
     1
 90
        2
176
     1
 90
        1
176
     1
 90
        2
176
     1
 40
0.6
176
     1
 40
30.0
176
     1
 62
     7
420
 16777215
176
     1
 90
        1
176
     1
 90
        0
176
     1
 62
     7
176
     1
 62
   257
176
     1
 90
        1
176
     1
 90
        1
176
     1
 40
1.0
176
     1
 90
        0
176
     1
 62
   257
176
     1
 40
1.0
176
     1
 90
        1
176
     1
 90
        6
176
     1
 90
        2
176
     1
 62
     7
176
     1
 90
        5
176
     1
 90
        0
176
     1
 90
        0
176
     1
290
     0
176
     1
 90
       13
176
     1
 40
0.0
176
     1
 90
        0
176
     1
290
     0
176
     1
290
     1
176
     1
290
     1
176
     1
290
     0
176
     1
290
     0
176
     1
290
     0
176
     1
290
     0
176
     1
290
     0
176
     1
290
     0
176
     1
 90
       50
176
     1
 40
0.0
176
     1
 40
1.0
176
     1
 90
        0
176
     1
 62
    18
420
        0
176
     1
 90
       50
176
     1
 90
        3
176
     1
 62
     5
420
      255
176
     1
290
     0
176
     1
 90
       50
176
     1
 90
       50
176
     1
 90
       50
176
     1
290
     0
176
     1
 90
       50
176
     1
 62
   256
176
     0
 40
1.0
176
     0
 90
        2
176
     1
  1
strokes_ogs.tif
176
     1
290
     0
176
     1
 40
1.0
176
     1
 40
1.0
176
     1
  0
VISUALSTYLE
  5
31
102
{ACAD_REACTORS
330
2A
102
}
330
2A
100
AcDbVisualStyle
  2
Hidden
 70
     6
177
     3
291
     0
 70
    58
 90
        1
176
     1
 90
        2
176
     1
 90
        2
176
     1
 90
        0
176
     1
 40
0.6
176
     1
 40
30.0
176
     1
 62
     7
420
 16777215
176
     1
 90
        2
176
     1
 90
        2
176
     1
 62
     7
176
     1
 62
   257
176
     1
 90
        2
176
     1
 90
        1
176
     1
 40
40.0
176
     1
 90
        0
176
     1
 62
   257
176
     1
 40
1.0
176
     1
 90
        1
176
     1
 90
        6
176
     1
 90
        2
176
     1
 62
     7
176
     1
 90
        3
176
     1
 90
        0
176
     1
 90
        0
176
     1
290
     0
176
     1
 90
        1
176
     1
 40
0.0
176
     1
 90
        0
176
     1
290
     0
176
     1
290
     1
176
     1
290
     1
176
     1
290
     0
176
     1
290
     0
176
     1
290
     0
176
     1
290
     0
176
     1
290
     0
176
     1
290
     0
176
     1
 90
       50
176
     1
 40
0.0
176
     1
 40
1.0
176
     1
 90
        0
176
     1
 62
    18
420
        0
176
     1
 90
       50
176
     1
 90
        3
176
     1
 62
     5
420
      255
176
     1
290
     0
176
     1
 90
       50
176
     1
 90
       50
176
     1
 90
       50
176
     1
290
     0
176
     1
 90
       50
176
     1
 62
   256
176
     0
 40
1.0
176
     0
 90
        2
176
     1
  1
strokes_ogs.tif
176
     1
290
     0
176
     1
 40
1.0
176
     1
 40
1.0
176
     1
  0
VISUALSTYLE
  5
3B
102
{ACAD_REACTORS
330
2A
102
}
330
2A
100
AcDbVisualStyle
  2
JitterOff
 70
    20
177
     3
291
     1
 70
    58
 90
        2
176
     0
 90
        2
176
     0
 90
        0
176
     0
 90
        0
176
     0
 40
0.6
176
     0
 40
30.0
176
     0
 62
     7
420
 16777215
176
     0
 90
        1
176
     0
 90
        4
176
     0
 62
     7
176
     0
 62
   257
176
     0
 90
        1
176
     0
 90
        1
176
     0
 40
1.0
176
     0
 90
       10
176
     2
 62
     7
176
     0
 40
1.0
176
     0
 90
        1
176
     0
 90
        6
176
     0
 90
        2
176
     0
 62
     7
176
     0
 90
        5
176
     0
 90
        0
176
     0
 90
        0
176
     0
290
     0
176
     0
 90
        1
176
     0
 40
0.0
176
     0
 90
        0
176
     0
290
     0
176
     0
290
     1
176
     0
290
     1
176
     0
290
     0
176
     0
290
     0
176
     0
290
     0
176
     0
290
     0
176
     0
290
     0
176
     0
290
     0
176
     0
 90
       50
176
     0
 40
0.0
176
     0
 40
1.0
176
     0
 90
        0
176
     0
 62
    18
420
        0
176
     0
 90
       50
176
     0
 90
        3
176
     0
 62
     5
420
      255
176
     0
290
     0
176
     0
 90
       50
176
     0
 90
       50
176
     0
 90
       50
176
     0
290
     0
176
     0
 90
       50
176
     0
 62
   256
176
     0
 40
1.0
176
     0
 90
        2
176
     0
  1
strokes_ogs.tif
176
     0
290
     0
176
     0
 40
1.0
176
     0
 40
1.0
176
     0
  0
VISUALSTYLE
  5
38
102
{ACAD_REACTORS
330
2A
102
}
330
2A
100
AcDbVisualStyle
  2
Linepattern
 70
    14
177
     3
291
     1
 70
    58
 90
        2
176
     1
 90
        2
176
     1
 90
        0
176
     1
 90
        0
176
     1
 40
0.6
176
     1
 40
30.0
176
     1
 62
     7
420
 16777215
176
     1
 90
        1
176
     1
 90
        4
176
     1
 62
     7
176
     1
 62
   257
176
     1
 90
        7
176
     1
 90
        7
176
     1
 40
1.0
176
     1
 90
        8
176
     1
 62
     7
176
     1
 40
1.0
176
     1
 90
        1
176
     1
 90
        6
176
     1
 90
        2
176
     1
 62
     7
176
     1
 90
        5
176
     1
 90
        0
176
     1
 90
        0
176
     1
290
     0
176
     1
 90
        1
176
     1
 40
0.0
176
     1
 90
        0
176
     1
290
     0
176
     1
290
     1
176
     1
290
     1
176
     1
290
     0
176
     1
290
     0
176
     1
290
     0
176
     1
290
     0
176
     1
290
     0
176
     1
290
     0
176
     1
 90
       50
176
     1
 40
0.0
176
     1
 40
1.0
176
     1
 90
        0
176
     1
 62
    18
420
        0
176
     1
 90
       50
176
     1
 90
        3
176
     1
 62
     5
420
      255
176
     1
290
     0
176
     1
 90
       50
176
     1
 90
       50
176
     1
 90
       50
176
     1
290
     0
176
     1
 90
       50
176
     1
 62
   256
176
     0
 40
1.0
176
     0
 90
        2
176
     1
  1
strokes_ogs.tif
176
     1
290
     0
176
     1
 40
1.0
176
     1
 40
1.0
176
     1
  0
VISUALSTYLE
  5
3C
102
{ACAD_REACTORS
330
2A
102
}
330
2A
100
AcDbVisualStyle
  2
OverhangOff
 70
    21
177
     3
291
     1
 70
    58
 90
        2
176
     0
 90
        2
176
     0
 90
        0
176
     0
 90
        0
176
     0
 40
0.6
176
     0
 40
30.0
176
     0
 62
     7
420
 16777215
176
     0
 90
        1
176
     0
 90
        4
176
     0
 62
     7
176
     0
 62
   257
176
     0
 90
        1
176
     0
 90
        1
176
     0
 40
1.0
176
     0
 90
        9
176
     2
 62
     7
176
     0
 40
1.0
176
     0
 90
        1
176
     0
 90
        6
176
     0
 90
        2
176
     0
 62
     7
176
     0
 90
        5
176
     0
 90
        0
176
     0
 90
        0
176
     0
290
     0
176
     0
 90
        1
176
     0
 40
0.0
176
     0
 90
        0
176
     0
290
     0
176
     0
290
     1
176
     0
290
     1
176
     0
290
     0
176
     0
290
     0
176
     0
290
     0
176
     0
290
     0
176
     0
290
     0
176
     0
290
     0
176
     0
 90
       50
176
     0
 40
0.0
176
     0
 40
1.0
176
     0
 90
        0
176
     0
 62
    18
420
        0
176
     0
 90
       50
176
     0
 90
        3
176
     0
 62
     5
420
      255
176
     0
290
     0
176
     0
 90
       50
176
     0
 90
       50
176
     0
 90
       50
176
     0
290
     0
176
     0
 90
       50
176
     0
 62
   256
176
     0
 40
1.0
176
     0
 90
        2
176
     0
  1
strokes_ogs.tif
176
     0
290
     0
176
     0
 40
1.0
176
     0
 40
1.0
176
     0
  0
VISUALSTYLE
  5
33
102
{ACAD_REACTORS
330
2A
102
}
330
2A
100
AcDbVisualStyle
  2
Realistic
 70
     8
177
     3
291
     0
 70
    58
 90
        2
176
     1
 90
        3
176
     1
 90
        0
176
     1
 90
        2
176
     1
 40
0.6
176
     1
 40
30.0
176
     1
 62
     7
420
 16777215
176
     1
 90
        0
176
     1
 90
        0
176
     1
 62
     7
176
     1
 62
   257
176
     1
 90
        1
176
     1
 90
        1
176
     1
 40
1.0
176
     1
 90
        8
176
     1
 62
   257
176
     1
 40
1.0
176
     1
 90
        1
176
     1
 90
        6
176
     1
 90
        2
176
     1
 62
     7
176
     1
 90
        3
176
     1
 90
        0
176
     1
 90
        0
176
     1
290
     0
176
     1
 90
       13
176
     1
 40
0.0
176
     1
 90
        0
176
     1
290
     0
176
     1
290
     1
176
     1
290
     1
176
     1
290
     0
176
     1
290
     0
176
     1
290
     0
176
     1
290
     0
176
     1
290
     0
176
     1
290
     0
176
     1
 90
       50
176
     1
 40
0.0
176
     1
 40
1.0
176
     1
 90
        0
176
     1
 62
    18
420
        0
176
     1
 90
       50
176
     1
 90
        3
176
     1
 62
     5
420
      255
176
     1
290
     0
176
     1
 90
       50
176
     1
 90
       50
176
     1
 90
       50
176
     1
290
     0
176
     1
 90
       50
176
     1
 62
   256
176
     0
 40
1.0
176
     0
 90
        2
176
     1
  1
strokes_ogs.tif
176
     1
290
     0
176
     1
 40
1.0
176
     1
 40
1.0
176
     1
  0
VISUALSTYLE
  5
42
102
{ACAD_REACTORS
330
2A
102
}
330
2A
100
AcDbVisualStyle
  2
Shaded
 70
    27
177
     3
291
     0
 70
    58
 90
        2
176
     1
 90
        2
176
     1
 90
        1
176
     1
 90
        2
176
     1
 40
0.6
176
     1
 40
30.0
176
     1
 62
     7
420
 16777215
176
     1
 90
        0
176
     1
 90
        4
176
     1
 62
     7
176
     1
 62
   257
176
     1
 90
        1
176
     1
 90
        1
176
     1
 40
1.0
176
     1
 90
        8
176
     1
 62
   257
176
     1
 40
1.0
176
     1
 90
        1
176
     1
 90
        6
176
     1
 90
        2
176
     1
 62
     8
420
  7895160
176
     1
 90
        3
176
     1
 90
        0
176
     1
 90
        0
176
     1
290
     0
176
     1
 90
        5
176
     1
 40
0.0
176
     1
 90
        0
176
     1
290
     0
176
     1
290
     1
176
     1
290
     1
176
     1
290
     0
176
     1
290
     0
176
     1
290
     0
176
     1
290
     0
176
     1
290
     0
176
     1
290
     0
176
     1
 90
       50
176
     1
 40
0.0
176
     1
 40
1.0
176
     1
 90
        0
176
     1
 62
    18
420
        0
176
     1
 90
       50
176
     1
 90
        3
176
     1
 62
     5
420
      255
176
     1
290
     0
176
     1
 90
       50
176
     1
 90
       50
176
     1
 90
       50
176
     1
290
     0
176
     1
 90
       50
176
     1
 62
   256
176
     0
 40
1.0
176
     0
 90
        2
176
     1
  1
strokes_ogs.tif
176
     1
290
     0
176
     1
 40
1.0
176
     1
 40
1.0
176
     1
  0
VISUALSTYLE
  5
41
102
{ACAD_REACTORS
330
2A
102
}
330
2A
100
AcDbVisualStyle
  2
Shaded with edges
 70
    26
177
     3
291
     0
 70
    58
 90
        2
176
     1
 90
        2
176
     1
 90
        1
176
     1
 90
        2
176
     1
 40
0.6
176
     1
 40
30.0
176
     1
 62
     7
420
 16777215
176
     1
 90
        1
176
     1
 90
       10
176
     1
 62
     7
176
     1
 62
   257
176
     1
 90
        2
176
     1
 90
        1
176
     1
 40
1.0
176
     1
 90
        8
176
     1
 62
   257
176
     1
 40
1.0
176
     1
 90
        1
176
     1
 90
        6
176
     1
 90
        2
176
     1
 62
     7
176
     1
 90
        3
176
     1
 90
        0
176
     1
 90
        0
176
     1
290
     0
176
     1
 90
        5
176
     1
 40
0.0
176
     1
 90
        0
176
     1
290
     0
176
     1
290
     1
176
     1
290
     1
176
     1
290
     0
176
     1
290
     0
176
     1
290
     0
176
     1
290
     0
176
     1
290
     0
176
     1
290
     0
176
     1
 90
       50
176
     1
 40
0.0
176
     1
 40
1.0
176
     1
 90
        0
176
     1
 62
    18
420
        0
176
     1
 90
       50
176
     1
 90
        3
176
     1
 62
     5
420
      255
176
     1
290
     0
176
     1
 90
       50
176
     1
 90
       50
176
     1
 90
       50
176
     1
290
     0
176
     1
 90
       50
176
     1
 62
   256
176
     0
 40
1.0
176
     0
 90
        2
176
     1
  1
strokes_ogs.tif
176
     1
290
     0
176
     1
 40
1.0
176
     1
 40
1.0
176
     1
  0
VISUALSTYLE
  5
3E
102
{ACAD_REACTORS
330
2A
102
}
330
2A
100
AcDbVisualStyle
  2
Shades of Gray
 70
    23
177
     3
291
     0
 70
    58
 90
        2
176
     1
 90
        2
176
     1
 90
        3
176
     1
 90
        0
176
     1
 40
0.6
176
     1
 40
30.0
176
     1
 62
     7
420
 16777215
176
     1
 90
        2
176
     1
 90
        2
176
     1
 62
     7
176
     1
 62
     7
176
     1
 90
        1
176
     1
 90
        1
176
     1
 40
40.0
176
     1
 90
        8
176
     1
 62
     7
176
     1
 40
1.0
176
     1
 90
        1
176
     1
 90
        6
176
     1
 90
        2
176
     1
 62
     7
176
     1
 90
        3
176
     1
 90
        0
176
     1
 90
        0
176
     1
290
     0
176
     1
 90
        1
176
     1
 40
0.0
176
     1
 90
        0
176
     1
290
     0
176
     1
290
     1
176
     1
290
     1
176
     1
290
     0
176
     1
290
     0
176
     1
290
     0
176
     1
290
     0
176
     1
290
     0
176
     1
290
     0
176
     1
 90
       50
176
     1
 40
0.0
176
     1
 40
1.0
176
     1
 90
        0
176
     1
 62
    18
420
        0
176
     1
 90
       50
176
     1
 90
        3
176
     1
 62
     5
420
      255
176
     1
290
     0
176
     1
 90
       50
176
     1
 90
       50
176
     1
 90
       50
176
     1
290
     0
176
     1
 90
       50
176
     1
 62
   256
176
     0
 40
1.0
176
     0
 90
        2
176
     1
  1
strokes_ogs.tif
176
     1
290
     0
176
     1
 40
1.0
176
     1
 40
1.0
176
     1
  0
VISUALSTYLE
  5
3F
102
{ACAD_REACTORS
330
2A
102
}
330
2A
100
AcDbVisualStyle
  2
Sketchy
 70
    24
177
     3
291
     0
 70
    58
 90
        1
176
     1
 90
        2
176
     1
 90
        2
176
     1
 90
        0
176
     1
 40
0.6
176
     1
 40
30.0
176
     1
 62
     7
420
 16777215
176
     1
 90
        2
176
     1
 90
        2
176
     1
 62
     7
176
     1
 62
     7
176
     1
 90
        1
176
     1
 90
        1
176
     1
 40
40.0
176
     1
 90
       11
176
     1
 62
     7
176
     1
 40
1.0
176
     1
 90
        1
176
     1
 90
        6
176
     1
 90
        2
176
     1
 62
     7
176
     1
 90
        6
176
     1
 90
        0
176
     1
 90
        0
176
     1
290
     0
176
     1
 90
        1
176
     1
 40
0.0
176
     1
 90
        0
176
     1
290
     0
176
     1
290
     1
176
     1
290
     1
176
     1
290
     0
176
     1
290
     0
176
     1
290
     0
176
     1
290
     0
176
     1
290
     0
176
     1
290
     0
176
     1
 90
       50
176
     1
 40
0.0
176
     1
 40
1.0
176
     1
 90
        0
176
     1
 62
    18
420
        0
176
     1
 90
       50
176
     1
 90
        3
176
     1
 62
     5
420
      255
176
     1
290
     0
176
     1
 90
       50
176
     1
 90
       50
176
     1
 90
       50
176
     1
290
     0
176
     1
 90
       50
176
     1
 62
   256
176
     0
 40
1.0
176
     0
 90
        2
176
     1
  1
strokes_ogs.tif
176
     1
290
     0
176
     1
 40
1.0
176
     1
 40
1.0
176
     1
  0
VISUALSTYLE
  5
37
102
{ACAD_REACTORS
330
2A
102
}
330
2A
100
AcDbVisualStyle
  2
Thicken
 70
    13
177
     3
291
     1
 70
    58
 90
        2
176
     1
 90
        2
176
     1
 90
        0
176
     1
 90
        0
176
     1
 40
0.6
176
     1
 40
30.0
176
     1
 62
     7
420
 16777215
176
     1
 90
        1
176
     1
 90
        4
176
     1
 62
     7
176
     1
 62
   257
176
     1
 90
        1
176
     1
 90
        1
176
     1
 40
1.0
176
     1
 90
       12
176
     1
 62
     7
176
     1
 40
1.0
176
     1
 90
        1
176
     1
 90
        6
176
     1
 90
        2
176
     1
 62
     7
176
     1
 90
        5
176
     1
 90
        0
176
     1
 90
        0
176
     1
290
     0
176
     1
 90
        1
176
     1
 40
0.0
176
     1
 90
        0
176
     1
290
     0
176
     1
290
     1
176
     1
290
     1
176
     1
290
     0
176
     1
290
     0
176
     1
290
     0
176
     1
290
     0
176
     1
290
     0
176
     1
290
     0
176
     1
 90
       50
176
     1
 40
0.0
176
     1
 40
1.0
176
     1
 90
        0
176
     1
 62
    18
420
        0
176
     1
 90
       50
176
     1
 90
        3
176
     1
 62
     5
420
      255
176
     1
290
     0
176
     1
 90
       50
176
     1
 90
       50
176
     1
 90
       50
176
     1
290
     0
176
     1
 90
       50
176
     1
 62
   256
176
     0
 40
1.0
176
     0
 90
        2
176
     1
  1
strokes_ogs.tif
176
     1
290
     0
176
     1
 40
1.0
176
     1
 40
1.0
176
     1
  0
VISUALSTYLE
  5
30
102
{ACAD_REACTORS
330
2A
102
}
330
2A
100
AcDbVisualStyle
  2
Wireframe
 70
     5
177
     3
291
     0
 70
    58
 90
        0
176
     1
 90
        2
176
     1
 90
        0
176
     1
 90
        0
176
     1
 40
0.6
176
     1
 40
30.0
176
     1
 62
     7
420
 16777215
176
     1
 90
        1
176
     1
 90
        4
176
     1
 62
     7
176
     1
 62
   257
176
     1
 90
        1
176
     1
 90
        1
176
     1
 40
1.0
176
     1
 90
        0
176
     1
 62
   257
176
     1
 40
1.0
176
     1
 90
        1
176
     1
 90
        6
176
     1
 90
        2
176
     1
 62
     7
176
     1
 90
        3
176
     1
 90
        0
176
     1
 90
        0
176
     1
290
     0
176
     1
 90
        1
176
     1
 40
0.0
176
     1
 90
        0
176
     1
290
     0
176
     1
290
     1
176
     1
290
     1
176
     1
290
     0
176
     1
290
     0
176
     1
290
     0
176
     1
290
     0
176
     1
290
     0
176
     1
290
     0
176
     1
 90
       50
176
     1
 40
0.0
176
     1
 40
1.0
176
     1
 90
        0
176
     1
 62
    18
420
        0
176
     1
 90
       50
176
     1
 90
        3
176
     1
 62
     5
420
      255
176
     1
290
     0
176
     1
 90
       50
176
     1
 90
       50
176
     1
 90
       50
176
     1
290
     0
176
     1
 90
       50
176
     1
 62
   256
176
     0
 40
1.0
176
     0
 90
        2
176
     1
  1
strokes_ogs.tif
176
     1
290
     0
176
     1
 40
1.0
176
     1
 40
1.0
176
     1
  0
VISUALSTYLE
  5
40
102
{ACAD_REACTORS
330
2A
102
}
330
2A
100
AcDbVisualStyle
  2
X-Ray
 70
    25
177
     3
291
     0
 70
    58
 90
        2
176
     1
 90
        2
176
     1
 90
        1
176
     1
 90
        1
176
     1
 40
0.5
176
     1
 40
30.0
176
     1
 62
     7
420
 16777215
176
     1
 90
        1
176
     1
 90
        0
176
     1
 62
     7
176
     1
 62
   257
176
     1
 90
        1
176
     1
 90
        1
176
     1
 40
1.0
176
     1
 90
        8
176
     1
 62
     7
176
     1
 40
1.0
176
     1
 90
        1
176
     1
 90
        6
176
     1
 90
        2
176
     1
 62
     7
176
     1
 90
        3
176
     1
 90
        0
176
     1
 90
        0
176
     1
290
     0
176
     1
 90
       13
176
     1
 40
0.0
176
     1
 90
        0
176
     1
290
     0
176
     1
290
     1
176
     1
290
     1
176
     1
290
     0
176
     1
290
     0
176
     1
290
     0
176
     1
290
     0
176
     1
290
     0
176
     1
290
     0
176
     1
 90
       50
176
     1
 40
0.0
176
     1
 40
1.0
176
     1
 90
        0
176
     1
 62
    18
420
        0
176
     1
 90
       50
176
     1
 90
        3
176
     1
 62
     5
420
      255
176
     1
290
     0
176
     1
 90
       50
176
     1
 90
       50
176
     1
 90
       50
176
     1
290
     0
176
     1
 90
       50
176
     1
 62
   256
176
     0
 40
1.0
176
     0
 90
        2
176
     1
  1
strokes_ogs.tif
176
     1
290
     0
176
     1
 40
1.0
176
     1
 40
1.0
176
     1
  0
DICTIONARYVAR
  5
630
102
{ACAD_REACTORS
330
62F
102
}
330
62F
100
DictionaryVariables
280
     0
  1
1:1
  0
DICTIONARYVAR
  5
635
102
{ACAD_REACTORS
330
62F
102
}
330
62F
100
DictionaryVariables
280
     0
  1
Standard
  0
DICTIONARYVAR
  5
634
102
{ACAD_REACTORS
330
62F
102
}
330
62F
100
DictionaryVariables
280
     0
  1
Standard
  0
DICTIONARY
  5
631
330
6A
100
AcDbDictionary
280
     1
281
     1
  3
ACAD_ROUNDTRIP_2008_TABLESTYLE_CELLSTYLEMAP
360
632
  0
CELLSTYLEMAP
  5
632
102
{ACAD_REACTORS
330
631
102
}
330
631
100
AcDbCellStyleMap
 90
        3
300
CELLSTYLE
  1
TABLEFORMAT_BEGIN
 90
        5
170
     1
 91
        0
 92
    32768
 62
   257
 93
        1
300
CONTENTFORMAT
  1
CONTENTFORMAT_BEGIN
 90
        0
 91
        0
 92
        4
 93
        0
300

 40
0.0
140
1.0
 94
        5
 62
     0
340
11
144
0.25
309
CONTENTFORMAT_END
171
     1
301
MARGIN
  1
CELLMARGIN_BEGIN
 40
0.06
 40
0.06
 40
0.06
 40
0.06
 40
0.06
 40
0.06
309
CELLMARGIN_END
 94
        6
 95
        1
302
GRIDFORMAT
  1
GRIDFORMAT_BEGIN
 90
        0
 91
        1
 62
     0
 92
       -2
340
14
 93
        0
 40
0.045
309
GRIDFORMAT_END
 95
        2
302
GRIDFORMAT
  1
GRIDFORMAT_BEGIN
 90
        0
 91
        1
 62
     0
 92
       -2
340
14
 93
        0
 40
0.045
309
GRIDFORMAT_END
 95
        4
302
GRIDFORMAT
  1
GRIDFORMAT_BEGIN
 90
        0
 91
        1
 62
     0
 92
       -2
340
14
 93
        0
 40
0.045
309
GRIDFORMAT_END
 95
        8
302
GRIDFORMAT
  1
GRIDFORMAT_BEGIN
 90
        0
 91
        1
 62
     0
 92
       -2
340
14
 93
        0
 40
0.045
309
GRIDFORMAT_END
 95
       16
302
GRIDFORMAT
  1
GRIDFORMAT_BEGIN
 90
        0
 91
        1
 62
     0
 92
       -2
340
14
 93
        0
 40
0.045
309
GRIDFORMAT_END
 95
       32
302
GRIDFORMAT
  1
GRIDFORMAT_BEGIN
 90
        0
 91
        1
 62
     0
 92
       -2
340
14
 93
        0
 40
0.045
309
GRIDFORMAT_END
309
TABLEFORMAT_END
  1
CELLSTYLE_BEGIN
 90
        1
 91
        1
300
_TITLE
309
CELLSTYLE_END
300
CELLSTYLE
  1
TABLEFORMAT_BEGIN
 90
        5
170
     1
 91
        0
 92
        0
 62
   257
 93
        1
300
CONTENTFORMAT
  1
CONTENTFORMAT_BEGIN
 90
        0
 91
        0
 92
        4
 93
        0
300

 40
0.0
140
1.0
 94
        5
 62
     0
340
11
144
0.18
309
CONTENTFORMAT_END
171
     1
301
MARGIN
  1
CELLMARGIN_BEGIN
 40
0.06
 40
0.06
 40
0.06
 40
0.06
 40
0.06
 40
0.06
309
CELLMARGIN_END
 94
        6
 95
        1
302
GRIDFORMAT
  1
GRIDFORMAT_BEGIN
 90
        0
 91
        1
 62
     0
 92
       -2
340
14
 93
        0
 40
0.045
309
GRIDFORMAT_END
 95
        2
302
GRIDFORMAT
  1
GRIDFORMAT_BEGIN
 90
        0
 91
        1
 62
     0
 92
       -2
340
14
 93
        0
 40
0.045
309
GRIDFORMAT_END
 95
        4
302
GRIDFORMAT
  1
GRIDFORMAT_BEGIN
 90
        0
 91
        1
 62
     0
 92
       -2
340
14
 93
        0
 40
0.045
309
GRIDFORMAT_END
 95
        8
302
GRIDFORMAT
  1
GRIDFORMAT_BEGIN
 90
        0
 91
        1
 62
     0
 92
       -2
340
14
 93
        0
 40
0.045
309
GRIDFORMAT_END
 95
       16
302
GRIDFORMAT
  1
GRIDFORMAT_BEGIN
 90
        0
 91
        1
 62
     0
 92
       -2
340
14
 93
        0
 40
0.045
309
GRIDFORMAT_END
 95
       32
302
GRIDFORMAT
  1
GRIDFORMAT_BEGIN
 90
        0
 91
        1
 62
     0
 92
       -2
340
14
 93
        0
 40
0.045
309
GRIDFORMAT_END
309
TABLEFORMAT_END
  1
CELLSTYLE_BEGIN
 90
        2
 91
        1
300
_HEADER
309
CELLSTYLE_END
300
CELLSTYLE
  1
TABLEFORMAT_BEGIN
 90
        5
170
     1
 91
        0
 92
        0
 62
   257
 93
        1
300
CONTENTFORMAT
  1
CONTENTFORMAT_BEGIN
 90
        0
 91
        0
 92
        4
 93
        0
300

 40
0.0
140
1.0
 94
        2
 62
     0
340
11
144
0.18
309
CONTENTFORMAT_END
171
     1
301
MARGIN
  1
CELLMARGIN_BEGIN
 40
0.06
 40
0.06
 40
0.06
 40
0.06
 40
0.06
 40
0.06
309
CELLMARGIN_END
 94
        6
 95
        1
302
GRIDFORMAT
  1
GRIDFORMAT_BEGIN
 90
        0
 91
        1
 62
     0
 92
       -2
340
14
 93
        0
 40
0.045
309
GRIDFORMAT_END
 95
        2
302
GRIDFORMAT
  1
GRIDFORMAT_BEGIN
 90
        0
 91
        1
 62
     0
 92
       -2
340
14
 93
        0
 40
0.045
309
GRIDFORMAT_END
 95
        4
302
GRIDFORMAT
  1
GRIDFORMAT_BEGIN
 90
        0
 91
        1
 62
     0
 92
       -2
340
14
 93
        0
 40
0.045
309
GRIDFORMAT_END
 95
        8
302
GRIDFORMAT
  1
GRIDFORMAT_BEGIN
 90
        0
 91
        1
 62
     0
 92
       -2
340
14
 93
        0
 40
0.045
309
GRIDFORMAT_END
 95
       16
302
GRIDFORMAT
  1
GRIDFORMAT_BEGIN
 90
        0
 91
        1
 62
     0
 92
       -2
340
14
 93
        0
 40
0.045
309
GRIDFORMAT_END
 95
       32
302
GRIDFORMAT
  1
GRIDFORMAT_BEGIN
 90
        0
 91
        1
 62
     0
 92
       -2
340
14
 93
        0
 40
0.045
309
GRIDFORMAT_END
309
TABLEFORMAT_END
  1
CELLSTYLE_BEGIN
 90
        3
 91
        2
300
_DATA
309
CELLSTYLE_END
  0
ENDSEC
  0
EOF
